Minor Majority
-Supergirl-

Med Capo på 3. Bånd

verse:
[Em]These are a[G]ll the things I ne[D]ver got to sa[C]y to you
[Em]Things I don't e[G]ven tell my fri[D]ends[C]
[Em]This is a s[G]ong that I've been hu[D]mming on for wa[C]y too long
[Em]The hidden tr[G]ack left at the e[D]nd

Chorus:
[Am]You're such a sn[H]ob, b[Em]ut you're such a s[C]uper girl
[Am]But anyda[H]y now they'll kn[Em]ow[G]
[Am]You're such a s[H]nob, b[Em]ut when recon[C]siderin', y[Am]ou've got a[H]ll the things I
wan[Em]t..[G]

Verse:
[Em]These are the st[G]reets we walked, the m[D]emories we're le[C]aning on
[Em]These are the i[G]mages I`ve sav[D]ed[C]
[Em]These are the gi[G]rls I should've have l[D]eft alone, I'd been b[C]etter off
[Em]This is wh[G]ere I am toda[D]y[C]

Chorus:
[Am]You're such a s[H]nob, [Em]but you're such a s[C]uper girl
[Am]And anyda[H]y now they'll kno[Em]w[G]
[Am]You're such a s[H]nob, b[Em]ut if you get thr[C]ough to me,
[Am]then I won't ha[H]ve to walk alo[Em]ne[G]

(Same for the rest of the verses/choruses)

Verse:
This is the t-shirt I've been carrying for all these years
It's got your picture on the front
This is the pride I take in wearing it and sharing it
With everyone who needs to know

Chorus:
You're such a snob, but you're such a super girl
But anyday now it'll show
You're such a snob, but you're such a super girl
Think it's time you sang along.

Verse:
This one's for rock'n'roll, for magazines, for radio
For all the times it knocked me out
This one's for showing up when everyone thought you were gone
This one's for never giving up.

Chorus:
You're such a slob, but you're such a super girl
Now it's time to carry on
You're such a slob, but you're such a super girl
Here's a heart that you'd want

You're such a slob, but you're such a super girl
Anyday now you'll be known
You're such a slob, but you're such a super girl
[Am]Those whom the g[D]ods love grow you[Em]ng[G]
[Am]Those whom the g[D]ods love grow you[Em]ng[G]


/Lassaron-Jon

Kommentarer:

Dette feltet skal ikke fylles ut:
  • drug tito (Gjest)
    likte denne låta...takk for grepa)
  • Tiril (Gjest)
    Nydelig sang som fint kan spilles! Jeg synes den var bra tabbed, jeg :-)
  • Pucky
    Har prøvd å finne ut av soloen. Dette her høres ok ut, men er nok langt ifra helt korrekt (tabbet uten capo).
    Håper det kan være til hjelp for noen.
    Der det står 8rb(return bend), betyr det at strengen bendes før den slås an, slik at du bare hører når strengen går tilbake til utgangsposisjon. Kom ikke på standardnotasjonen for den type bend i farta.

    |------------------------------------------------------------------|
    |------------------------------------------------------------------|
    |-------------3-3---5p3-5-7--3---------3--7p5-3-5-7b-7b-7p5-3-5-5~-|
    |-3-3-55--5-5------------------5---3-5-----------------------------|
    |------------------------------------------------------------------|
    |------------------------------------------------------------------|

    |-------------------------------6-6--8-8b-8rb-6-8---8p6-6p5-------------------|
    |-------------------6-8-------------------------------------8p6---6-------8-8-|
    |---3--5--3---3-5-7--------5h7----------------------------------7---7--7--7-7-|
    |-5-----------------------------------------------------------------------5-5-|
    |-----------------------------------------------------------------------------|
    |-----------------------------------------------------------------------------|

    |-8rb---6-8--8b-8p6-3-6-8-------------|
    |-------------------------------------|
    |-------------------------------------|
    |---------------------------3-5p3-5~--|
    |-------------------------------------|
    |-------------------------------------|
  • Fredrik (Gjest)
    Noen som har soloen på denne?
  • brusespringstein
    er det noen som har en idé om hvordan fingerspillet på første verset går?
  • keychain
    Hei og hå... Knall med nortabs.net Luvvit!
    Men ja: Det er som dere skriver her allerede. Skal nok være Em og ikke G på refrenget der... Har nettopp spilt inn låta og Em var helt klart rett

    Mvh KeyChain :guitar:
  • Se alle kommentarer
Lagre i egne samlinger
Vurderinger