Bæ Bæ Lille Lam

av MaskinTveito 03/12-2007
Bæ Bæ Lille Lam

D   
Bæ Bæ lille lam 
A7          D
Har du noe ull? 
D
Ja ja kjære barn, 
A7               D
jeg har kroppen full. 
G                D
Søndagsklær til far, 
A7                 D
og søndagsklær til mor, 
G            D          Em     A7   D
og to par strømper til bitte lille bror
	
	
(Spill denne 2x)

E---------------------|
B---------------------|
G---7---------------0-|
D-5---9-9-5-7-7-0-0---|
A---------------------|
E---------------------|



|------------------------------------------------|
|------------------------------------------------|
|-9-5-5-5-7--7-7-4-4-4-5--5-9-5-7-4-4-5-------0--|
|---------------------------------------4-4-4----|
|------------------------------------------------|
|------------------------------------------------|

Kommentarer:

Dette feltet skal ikke fylles ut:
  • Camilla (Gjest)
    Fin sang.????????????????????????????????????????????
  • DA drummer (Gjest)
    Kan man bruke dette til piano??.
  • PianoogGitarelsker 2 (Gjest)
    Ikke riktig
  • Gjest
    my frend gonna get 6karaktor
  • Gjest
    fikk 4 i musikk
  • Onomatopoetikon (Gjest)
    Lydhermende ord:
    Au, spjong, pang, vhroom
  • Se alle kommentarer
Lagre i egne samlinger
Vurderinger