Picazzo - Timeglass



[A] [Hm] [E] [A]
|--------------------------------------------------9---|
|------10--------------9-10-12--12b14-12--12-10-12--10-|
|----9---11---7p6--------------------------------------|
|-11--------------9------------------------------------|
|------------------------------------------------------|
|------------------------------------------------------|

                   E
|------------------------------------------------------|
|--9h10p9----------------------------------------------|
|---------11-9-7-6-4-----------------------------------|
|------------------------------------------------------|
|------------------------------------------------------|
|------------------------------------------------------|


A
Ingen kan vise deg hvor du skal gå,
                                       Hm
du må bestemme hvor langt du skal nå - helt alene
E
Om det går galt må du komme igjen
jeg sitter her og vil være din venn - [A]helt [E]alene
A
Går det litt tungt kan jeg trøste deg med,
                                        Hm
veien går alltid litt opp og litt ned - hele livet
[F#m]Se deg litt rundt og [E]du vil forstå - du lever [A]livet nå[E]



Ref.:
          A
Du har et timeglass som du har fått i gave
           Hm
der ligger dagene som sakte renner ned
          E
og du kan se tilbake helt til Edens have
der det beg[A]ynte under livets fiken[E]tre
           A
det tar en evighet å finne frem det gode
         Hm
to tusen år er kun et lite øyeblikk
[F#m]Se deg litt rundt og [E]du vil forstå - du lever [A]livet nå



Hold meg i hånden og gi meg et smil,
så skal jeg bære deg mil etter mil - helt alene
Jeg kan fortelle deg uten et ord
vi to går sammen - men lager et spor - helt alene
Sammen skal vi gå i sol og regn
lese hverandre i stjernetegn - hele livet
Se deg litt rundt og du vil forstå - du lever [A]livet nå[F#]


Solo:
[H] [C#m]
|----12-11h12p11---------------12-11h12p11-------------------|
|----------------14-12-16------------------14-12-14-16-14----|
|-11------------------------11-------------------------------|
|------------------------------------------------------------|
|------------------------------------------------------------|
|------------------------------------------------------------|
[Abm] [F#] [H]
|-12-11h12p11---------------16-14--------16------------------|
|----------------14-12-16----------14b16----14b16r14--12--12-|
|------------------------------------------------------------|
|------------------------------------------------------------|
|------------------------------------------------------------|
|------------------------------------------------------------|

|------------------------------------------------------------|
|-7-9-7------------------------------------------------------|
|--------8--------6-8-6--------------------------------------|
|----------4---4---------------------------------------------|
|------------4-----------------------------------------------|
|------------------------------------------------------------|


Ref.:
          H
Du har et timeglass som du har fått i gave
           C#m
der ligger dagene som sakte renner ned
          F#
og du kan se tilbake helt til Edens have
der det beg[H]ynte under livets fiken[F#]tre
           H
det tar en evighet å finne frem det gode
         C#m
to tusen år er kun et lite øyeblikk
[Abm]Se deg litt rundt og [F#]du vil forstå - du lever [H]livet nå
[Abm]Se deg litt rundt og [F#]du vil forstå - du lever [H]livet nå

Kommentarer:

Dette feltet skal ikke fylles ut:
  • Kajsa (Gjest)
    Älskar den sången, tack för att du lagt ner tid på detta!
  • mahamad (Gjest)
    takk for sang
  • johnny storseth (Gjest)
    takk for sang og tab:-)
  • Kristian Flensborg (Gjest)
    Kenneth Hansen: helt enig med deg sang den til kjæresten min, og det endte med at jeg ble bedt med ut på kino ^^
  • Kenneth hansen (Gjest)
    liker at du har fått inn intro og solo sammen med grepene. godt arbeid. min favoritt sang. elsker den. syntes dette er flott arbeid. stå på!
Lagre i egne samlinger
Vurderinger