Norske jenter

av Yhtam 06/04-2008
Sang: Norske jenter
Artist: The Kids

--------------
Tabs og grep:
--------------


Intro, riff 1:
   [E].   ,   .   ,     .   ,   .   ,     [A].   ,   .   ,     .   ,   .   ,
e|-----------------|-----------------|-----------------|-----------------|
H|-----------------|-----------------|-----------------|-----------------|
G|-----------------|-----------------|-----------------|-----------------|
D|-----------------|-----------------|-----------------|-------------2-2-|
A|-----------------|-------------2-2-|-0-0-0-0-0-0-0-0-|-0-0-2-2-3-3-----|
E|-0-0-0-0-0-0-0-0-|-0-0-2-2-3-3-----|-----------------|-----------------|

   [F].   ,   .   ,     [D].   ,   .   ,     [F].   ,   .   ,     [E].   ,   .   ,
 |-----------------|-----------------|-----------------|-----------------|
 |-----------------|-----------------|-----------------|-----------------|
 |-----------------|-----------------|-----------------|-----------------|
 |-3-3-3-3-3-3-3-3-|-0-0-0-0-0-0-0-0-|-3-3-3-3-3-3-3-3-|-2-2-2-2-2-2-2-2-|
 |-----------------|-----------------|-----------------|-----------------|
 |-----------------|-----------------|-----------------|-----------------|


   .   ,   .   ,
 |-----------------||
 |-----------------||
 |-----------------||
 |-2-2-2-2-2-2-2-2-||
 |-----------------||
 |-----------------||



Vers, riff 2:

   .[A]  ,  .  ,   .[E]  ,  .   ,[G]    .  , [G/F#] .  ,   [E].  ,  .  ,
e|------------|--------------|------------|------------|
H|------------|--------------|------------|------------|
G|------------|--9-9--9-9----|------------|------------|
D|--7-7--7--7-|--9-9--9-9----|------------|-2----------|  <- x2
A|--7-7--7--7-|--------------|--2-5---2-5-|-2----------|
E|------------|------------3-|------2-----|-0----------|

   [H]    .  ,  .  ,   [C]    .  ,  .  ,   [D]    .  ,  .  ,   .  ,[D]    .  [A],
 |----------------|----------------|----------------|--------------|
 |----------------|----------------|----------------|--------------|
 |-4-4-4----------|-5-5-5----------|-7-7-7----------|-----7-7-7----|
 |-4-4-4----------|-5-5-5----------|-7-7-7----------|-----7-7-7--7-|
 |-2-2-2----------|-3-3-3----------|-5-5-5----------|-----5-5-5--7-|
 |----------------|----------------|----------------|------------5-|

   [H].  ,  .  ,   [C].  ,  .  ,   [D].  ,  .  ,   [E].   ,   .   ,     [E].  ,  .  ,
 |------------|------------|------------|-----------------|-------------|
 |------------|------------|------------|-----------------|-------------|
 |-4----------|-5----------|-7----------|-9---------------|-9-----------|
 |-4----------|-5----------|-7----------|-9---------------|-9-----------|
 |-2----------|-3----------|-5----------|-7-7-7-7-7-7-7-7-|-7----2------|
 |------------|------------|------------|-----------------|--------4--0-|



- Refreng: | A | A | G | G | D | D | A | A |  <- x2


- 2. vers: Riff 2.


- Refreng.


- Riff 1


- Refreng


- "Solo": Refrenggrep


- Refreng (Fade out)




-------------------------------------------------------------------------------------

-------------------
 Tekst og grep
-------------------


Intro: | E | E | A | A | F | D | F | E | E |


1. Vers:

[A]Åh, du gjør meg både v[E]ill og gal[G][G/F#][E]
[A]Åh, og virkningen er h[A]elt total[G][G/F#][E]

[H]Få`kke sove - kan`ke gj[C]øre no`n ting
         D
når jeg tenker på deg
Det [H]er noe rart som rører seg i h[C]ue mitt nå
n[D]oe som jeg ikke kan forst[E]å


Refreng:

[A]Ooo, norske jenter gj[G]ør meg sprø
                  D
Det føles som om jeg skal dø
                       A
Jeg smelter bort som snø
[A]Ooo, norske jenter [G]elsker vi
                   D
De fyller meg med fantasi
                       A
De gjør meg vill' og fri


2 vers:

Hey, visste du at du er best
Yeah, det er deg jeg liker mest

Få`kke sove - kan`ke gjøre no`n ting
når jeg tenker på deg
Det er noe rart som rører seg i hue mitt nå
noe som jeg ikke kan forstå


Refreng.


Riff: Introgrep


Refreng.


"Solo": Refrenggrep


Refreng. (Fade out)


================
= Tab av Yhtam =
================




*********************************************
* Denne filen er forfatterens egen tolkning *
* av sangen, skrevet ned kun etter øret.    *
* Den er kun beregnet til privat bruk.      *
*********************************************

Andre versjoner:

Kommentarer:

Dette feltet skal ikke fylles ut:
Lagre i egne samlinger
Vurderinger