Jaktprat

av Ukjent 24/02-2007
Jaktprat av Øystein Sunde
tabbet av:  Mfloberg@hotmail.com

Okey, låta høres kanskje tricky ut når Øystein setter i gang, men selve
spillinga er ikke vanskelig å lære seg. Det er kun 3 akkorder gjennom hele låta og
fingerspillet lærer du fort med litt trening. Faktisk tror jeg de fleste vil ha
større vanskeligheter med vokalen (som krever en del munnraphet og komikertalent)
enn med gitaren. Denne versjonen er noe forenklet, men for meg (og de som hører den)
låter den helt strøkent.
Enjoy..

Standard tuning: E,A,D,G,B,E

Intro/outro:

G        Csus2     D                                                        G
|3------------------------------------------------------------2--3-----------3---|
|----02---3-----------------------------------------------020------02-----2--2---|
|-------------02----0---1---2---4-0---5---4---2---1---0---------------020----0---|
|--0----0---0----0----2---------------------------------2--------------------0---|
|---3----3---3----3---3---3---3---------3---3---3---3---3--------------------3---|
|---3----3---3----3---2---2---2---------2---2---2---2---2--------------------3---|

Vers del 1:
(*2 i 1, 2, 3, 4 og 7. vers)
(*4 i vers 5 og 6)

G          Csus2      D
|3--------------------------------------------|
|----02-----3---------------------------------|
|----------------02-----0---------0-----------|
|--0----0----0------0------02---------02------|
|---3-----3----3------3---3----3----3----3----|
|---3-----3----3------3---2----2----2----2----|

Vers del 2:

G                   Csus2              D
|3----------3-------------------------------------------------------|
|-----02---------0-2-3------------3---------------------------------|
|-------------------------02-----------0-2-0-----------0------------|
|--0----0-----0-------0------0------0--------2---02---------02------|
|----3-----3---3--------3------3----3---------3-----3----3------3---|
|----3-----3---3--------3------3----3---------2-----2----2------2---|

"Avslutning"  på vers.
enten ca. slik:
|---------------------------------2-3------------3---|
|-----------------------------020------02-----2--2---|
|-0-2-0--5---4---2---1---0---------------020-----0---|
|------------------------------------------------0---|
|----------3---3---3---3---3---------------------3---|
|----------2---2---2---2---2---------------------3---|

eller:

|-3-------------------------2-3---------------3---|
|-----02---3-------------20------02--------2--2---|
|--------------02----0----------------020-----0---|
|---0----0---0----0----2----------------------0---|
|----3----3---3----3---3----------------------3---|
|----3----3---3----3---2----------------------3---|


Det var en dag i august i fjor at bikkja fikk hetta og fulgte et spor
Han kom ikke hjem før dagen etter, makaløst eksemplar av en engelsk setter
Fillebikkje!
Dårlig ører, men ganske ålreit nese, han lukter jo pannekaker og sånn kommer'n
med en gang, bra bikkje det gitt, ha..

Da bikkja kom hjem til frokost den dagen var fattern yr og hadde sug i magen
Satt der på trappa og pussa og sikla på mausern og hagla og salongrifla.
Fin børse den mausern, løpet er fra 1934
Gamle børser bommer mest, pleier fattern å si

Så muttern fikk nok med å pakke sekken og sønn i huset lå å bada i bekken,
men ble halt på land av en ergelig far
Ingen skal sluntre unna her i dag, sa fattern
Ut i skogen, gutten min
Opp i trærne, sprik med tærne, av med klærne..  bla, bla.....

Så jeg fikk mausern og hagla og kragen, og sekk på ryggen og sekk på magen
så bar det til skogs i guds frie natur for å skyte på røy og tiur
Eller en elg? en bærplukker eller no sånt
Fryseboksen skal fylles i år, sa fattern...

Men snart var bikkja over alle hauger for oppi åsen der gikk non sauer
så fattern og jeg gikk på egenhånd og skøyt på alt som så ut som det rørte på seg
DER!! skreik jeg og pekte i krattet og fattern skvatt som ei støkt katte
og ut av lomma i fritidsdressen spratt en 7,62 Smith&Wesson...
Rev, sa fattern.. Sølvrev, det skinner a'n helt hit
Får mange penger for det skinnet der, sa fattern
Det blir bra.. ha...

Med mauser og hagle og Smith & Wesson sneik han seg fram på strømpelesten
Like stille som ånden som går, da brølte'n ut: DER SKUDDET GÅR!! og så brente'n a
Og lauvet drøssa og torva spruta og det singla stygt i ei glassrute
Da var det vi oppdaga at sølvreven vår det var jaggu meg den største jeg har
skutt i år, sa fattern
Største sølvgrå Folkevogn Deluxe Spesial med overdrive og to fete forgassere
og blablabla...

Så fattern han mista jaktlisensen, nå ligger i trening på svenskegrensen
og ligger å skyter på svenskefaen og vil ha igjen Jämtland i Härjedalen
Og jeg drar aldri på jakt no mer, jeg bare sitter hjemme å ler og tenker på
den store gangen da fattern skøyt på folkevogna til lensmannen, dam duri dam.....




*********************************************
* Denne filen er forfatterens egen tolkning *
* av sangen, skrevet ned kun etter øret.    *
* Den er kun beregnet til privat bruk.      *
*********************************************

Andre versjoner:

  • Tab (1) av Ukjent
  • versjon 2
    Tab (1) av Ukjent

Kommentarer:

Dette feltet skal ikke fylles ut:
  • Stewie (Gjest)
    Klarer dere ikke og spille tabben oppned bør dere se på en melodi med litt lavere vanskeloghetsgrad tenker jeg... bra tab???????? vill ha mer Øystein
  • Lateralus (Gjest)
    Haha.. tabben er jo oppned! det er jo litt amatørmessig da. Noen som tar seg bryet til å få den riktig vei? jeg kan godt gjøre det, men da blir det etter påske.
  • Vegard (Gjest)
    Bortskjemte folk her gitt. Her får dere tabben gratis så klager dere på at den er opp ned? Flott tab og tusen takk sier nå jeg!
  • Kristoffer (Gjest)
    faild taben er oppnedXD
  • Knut Mindrebø (Gjest)
    Hei!

    Veldig bra tab/chord! Når det gjelder teksten, så tror jeg fattern skriker "det er skuddår i år" og ikke "Der skuddet går".
  • Ro (Gjest)
    ganske dumt å legge ut en tab som er oppned...
  • Se alle kommentarer
Lagre i egne samlinger
Vurderinger