Krasfaren Steinbu

av bennsi 10/12-2008
OT=overtone
B=bend

E ---------------------------------------------------12OV-
B -----------------------------------------------12OV-----
D --------------------------------------------------------   Riff 2x intro
G------2-0-2---0h2--2-0-2--0h2--2-0-2-0-------------------
A-----------0h2---------0h2------------2p0----------------
E 12s0------------------------------------3-0-------------


G -0h2--2-0-2-0-------------------
A --------------2p0---------------   Brukes som ned gang, på slutten av noen
E -------------------3-0----------   Linjer i vers



Solo:
E ----------------------------------------------------
B --5---5-----7---7----10--10----12---12--------------
D --B7--B7----B9--B9---b12-B13---B14--B14-------------
G-----------------------------------------------------
A-----------------------------------------------------
E ----------------------------------------------------

Kommentarer:

Dette feltet skal ikke fylles ut:
  • Gjest
    Du vekke dyret
  • Gitarelsker (Gjest)
    Jævla overtone driiiiitet
  • fjompen (Gjest)
    kul sang
Lagre i egne samlinger
Vurderinger