Mellom bakkar og berg

av Severin10 09/05-2009
|-------------------------------------------------------------------|
|-------------------------------------------------------------------|
|-------------------------------------------------------------------|
|-------------------------------------------------------------------|
|-2--------------------2~---------2-5~--2---------------------------|
|---3--0-0---2-3-3---5----3-----3---------3-5~--2-0-3~--------------|

riff B1 (gitar 1)
|-------------------------------------------------------------------|
|-------------------------------------------------------------------|
|-------------------------------------------------------------------|
|-----------------------------------2-------------------------------|
|-2h3-(7)--2-(5)-------2-------2----0-4--22222222-------------------|
|------5~-----3~--5-2~-----3-2-0------2--00000000-------------------|
                                         ........
riff a2 (gitar 2)
|-------------------------------------------------------------------|
|-------------------------------------------------------------------|
|----------------------4~-------4-5-7~--4---------------------------|
|-5-4--------4-5-5---7----5---------------5-7~--4---5~--------------|
|------7-7----------------------------------------7-----------------|
|-------------------------------------------------------------------|

riff b2 (Gitar 2)
|-------------------------------------------------------------------|
|---------------------------------5~--------------------------------|
|-4-5-------4----------4~-----4h5----5-4----4-----------------------|
|------7-7----5-5--7-4--------------------7---5-4-------------------|
|-------------------------------------------------7~----------------|
|-------------------------------------------------------------------|


~:vibrasjon

Andre versjoner:

Kommentarer:

Dette feltet skal ikke fylles ut:
  • Gutt 11år (Gjest)
    Litt for mørk, men ellers bra
  • Martin (Gjest)
    Basic....
Lagre i egne samlinger