Enhjørning

av Anonym 04/07-2009
Artist:Dum Dum Boys
Sang:Enhjørning
Album:Gravitasjon


                                          
Intro og Ref:
                                                      
e------------------------------------------------------------]
B------------------------------------------------------------]
G--7--7--6--6------------------------------------------------]
D--7--7--6--6---2---4--4--4--4-------------------------------]
A--5--5--4--4---2---4--4--4--4-------------------------------]
E---------------0---2--2--2--2-------------------------------]

I slutten av refrenget kommer dette:

e------------------------------------------------------------]
B------------------------------------------------------------]
G--7--7--6--6------------------------------------------------]
D--7--7--6--6--2--4--4--4---2--------------------------------]
A--5--5--4--4--2--4--4--4---2--------------------------------]
E--------------0--2--2--2---0--------------------------------]

e------------------------------------------------------------]
B------------------------------------------------------------]
G--4--4------------------------------------------------------]
D--4--4--2--2---4--------------------------------------------]
A--2--2--2--2---4--------------------------------------------]
E--------0--0---2--------------------------------------------]

Vers:
e------------------------------------------------------------]
B------------------------------------------------------------]
G--4---6-----------------------------------------------------]
D--4---6----4------------------------------------------------]
A--2---4----4------------------------------------------------]
E-----------2------------------------------------------------]

To ganger i verset komme dette riffe, som er nesten helt likt som det andre.
e------------------------------------------------------------]
B------------------------------------------------------------]
G--4---6-----------------------------------------------------]
D--4---6---7-------------------------------------------------]
A--2---4---7-------------------------------------------------]
E----------5-------------------------------------------------]

Lykke til!

Kommentarer:

Dette feltet skal ikke fylles ut:
  • Kristian (Gjest)
    e------------------------------------------------------------]
    B------------------------------------------------------------]
    G--7--7--7--7------------------------------------------------]
    D--7--7--7--7---2---4--4--4--4-------------------------------]
    A--5--5--4--4---2---4--4--4--4-------------------------------]
    E---------------0---2--2--2--2-------------------------------]
  • Ronnien (Gjest)
    Ka fan
  • Anaunamos (Gjest)
    :3
  • jonathan jensen (Gjest)
    det er fordi du ikke kan spille eller du kan ikke sangen noooob
  • Gjest
    Av en eller annen merkelig grunn så får jeg ikke dette til å høre ut som sangen
Lagre i egne samlinger
Vurderinger