Hun Er Forelska I Nissen

av Tronder94 11/08-2009
Intro:

|----------------------------------------------|
|----------------------------------------------|
|---------------------2----------------------2-|
|-2---2-2----2---2-2--2--2---2-2----2---2-2--2-|
|-2---2-2----2---2-2--0--2---2-2----2---2-2--0-|
|-0---0-0----0---0-0-----0---0-0----0---0-0----|

Vers:

|----------------------------------------------------------------|
|----------------------------------------------------------------|
|-----------------------2---2-2----2---2-2----4---4-4----2---2-2-|
|-2---2-2----2---2-2----2---2-2----2---2-2----4---4-4----2---2-2-|
|-2---2-2----2---2-2----0---0-0----0---0-0----2---2-2----0---0-0-|
|-0---0-0----0---0-0---------------------------------------------|

|-----------------------|
|-----------------------|
|----------2----------2-|
|-2---2-2--2--2---2-2-2-|
|-2---2-2--0--2---2-2-0-|
|-0---0-0-----0---0-0---|

|----------------------------------------------------------------|
|----------------------------------------------------------------|
|-----------------------2---2-2----2---2-2----4---4-4----2---2-2-|
|-2---2-2----2---2-2----2---2-2----2---2-2----4---4-4----2---2-2-|
|-2---2-2----2---2-2----0---0-0----0---0-0----2---2-2----0---0-0-|
|-0---0-0----0---0-0---------------------------------------------|

|-----------------------------|
|-----------------------------|
|----------2------------------|
|-2---2-2--2--2-2-2-2-2-2-2-2-|
|-2---2-2--0--2-2-2-2-2-2-2-2-|
|-0---0-0-----0-0-0-0-0-0-0-0-|

Refreng:

|---------------------------------------------------------|
|---------------------------------------------------------|
|-6-6-6-6-6-6-6-6-6-6-6-6-6--4--2-2-2-2-2-2-2-2-2-2-2-2-2-|
|-6-6-6-6-6-6-6-6-6-6-6-6-6--4--2-2-2-2-2-2-2-2-2-2-2-2-2-|
|-4-4-4-4-4-4-4-4-4-4-4-4-4--2--0-0-0-0-0-0-0-0-0-0-0-0-0-|
|---------------------------------------------------------|

|------------------------------------|
|------------------------------------|
|------------------------------------|
|-6--4-4-4-4-4-4-4-4-4-4-4-4-4-4-4-2-|
|-6--4-4-4-4-4-4-4-4-4-4-4-4-4-4-4-2-|
|-4--2-2-2-2-2-2-2-2-2-2-2-2-2-2-2-0-|

Intro

Vers

Refreng (X2)

Solo 1:

|---------------------------------------------------------|
|---------------------------------------------------------|
|-222-------------------4-6-8-6-------------------4-6-8-6-|
|-222---------------4-6-----------------------4-6---------|
|-000-------444-6-7-------------------444-6-7-------------|
|---------------------------------------------------------|

|---------------------|
|---------------5-7-5-|
|-----------4-6-------|
|-----4-6-7-----------|
|-777-----------------|
|---------------------|


|-12p9-12p9---------------------------------------------------|
|-----------12p9-12p9-----------------------------------------|
|---------------------11p9-11p9-------------------------------|
|-------------------------------11p9-11p9---------------------|
|-----------------------------------------11p9-11p9-----------|
|---------------------------------------------------11p9-11p9-|

Refreng (X2)

Solo 2:

|-----------------------------------------------------------------------|
|-----------------------------------------------------------------------|
|-6-6-6-6-6---------------4-6-8-2-2-2-2-2---------------4-6-8-----------|
|-6-6-6-6-6-----------4-6-------2-2-2-2-2-----------4-6-------4-4-4-4-4-|
|-4-4-4-4-4---444-6-7-----------0-0-0-0-0---444-6-7-----------4-4-4-4-4-|
|-------------------------------------------------------------2-2-2-2-2-|

|-------------------0~--------12p9-12p9-------------------------------|
|---------------5-7-0~------------------12p9-12p9---------------------|
|-----------4-6-----1~----------------------------11p9-11p9-----------|
|-----4-6-7---------2~--------------------------------------11p9-11p9-|
|-777---------------2~------------------------------------------------|
|-------------------0~------------------------------------------------|

Solo 1 (X2)

Solo 2

Outro:

|-----------|
|-----------|
|-6-6-6-6-6-|
|-6-6-6-6-6-|
|-4-4-4-4-4-|
|-----------|



NB: Det er noen små riff imellom soloene på slutten av sangen som jeg
    ikke har tatt med.

Andre versjoner:

Kommentarer:

Dette feltet skal ikke fylles ut:
  • Maja (Gjest)
    teit sang!!! det er jo ingen tekst
  • October
    Minner meg om den versjonen av "Love is all around" i filmen Love Actually, der stort sett det eneste som er forskjellen er at ordet love er bytta ut med Christmas :-P
  • Tronder94
    Jeg synes det er litt morsommere tekst på "Nissen"-versjonen enn "Lærern"-versjonen. Jeg har planer om å legge ut tekst med akkorder også.
  • bimbam
    Hun er Forelska i Nissen må jo være en av tidenes julesanger vel??

    Det er forøvrig helt riktig at den kan være slående lik Forelska i Lærern...
  • Mikke
    Er det kødd? Det er jo helt likt forelska i lærern. Does it makes a difference?
    Uansett, bra og oversiktlig da
Lagre i egne samlinger
Vurderinger