Lille katt

av Fredrik195 31/08-2009
-----0------0--0-3-1-0-1-0-
-1-3----1-3---------------3
---------------------------
---------------------------
---------------------------
---------------------------

-----------------1-0-0-----
-0-1-3--0-1-3--3----3-3-1--
---------------------------
---------------------------
---------------------------
---------------------------

Andre versjoner:

Kommentarer:

Dette feltet skal ikke fylles ut:
  • GUtt ene (Gjest)
    Bra og jeg er med på emil i løneberge æ skjø
  • BÆ! (Gjest)
    Beste melodi og sang
  • snerkern!!!! (Gjest)
    bra
  • :) Elsker gitar :) (Gjest)
    FEIL! Jobb mere med den der
  • Tonje (Gjest)
    Hadde nesten glemt denne sangen! Kjempe bra ^^
  • andy (Gjest)
    mega bra!!!!!!!!!!!!!!!!!!!!!!!!!!!!!!!!!!!!!!!!!!!!!!!!!!!!
  • Se alle kommentarer
Lagre i egne samlinger
Vurderinger