Gratulerer med da'n

av guitarlover 03/02-2010
e-------------|------------|-----------------|--------------            
B-------------|------------|-----------------|--------------            
G-------------|------------|-----------------|--------------            
D---------3-2-|---------5-3|-----10-7-3-3-2--|-8-8-7-3-5-3--            
A-3-3-5-3-----|-3-3-5-3----|-3-3------------5|--------------            
E-------------|------------|-----------------|--------------

Andre versjoner:

Kommentarer:

Dette feltet skal ikke fylles ut:
  • woe (Gjest)
    very bad, i dont know how 2 read tabs
  • Gjest
    heh.. blei noe feil der, men det går vel ann å tyde tabsen :-P
  • Gjest
    hele tabulaturet stemmer,
    men for de som kanskje synes det er tungvindt å få det til å høres bra ut når du må flytte hånda så mye...
    dette ser kanskje værre ut, men er mye bedre for de som skal lære seg å spille, som trenger å trene fingrene og her trenger du nesten bare å tenke på en finger per bånd. så man trenger ikke flytte hånda i det heletatt.
    e-------------|------------|-----------------|--------------
    B-------------|------------|-----------------|--------------
    G-------------|------------|-----5--2--------|-3-3-2--------
    D---------3-2-|---------5-3|----------3-3-2--|-------3-5-3--
    A-3-3-5-3-----|-3-3-5-3----|-3-3------------5|--------------
    E-------------|------------|-----------------|--------------
  • Alle i verden (Gjest)
    Nice
  • Kasperelo
    Knallbra!!!
  • kjell (Gjest)
    Hei. Jeg elsket denne sangen Hilsen Kjell
  • Se alle kommentarer
Lagre i egne samlinger
Vurderinger