Confessional Song

av tekjonik 12/03-2010
Elin Gaustad - Confessional Song

capo 2

- Intro & Vers -

e|-------0h2------       |-------2-----2-3      
a|-----3-----3---3       |-----3-----3----
d|---0---------0--       |---2------------
g|-2--------------       |-0--------------
h|----------------       |----------------
e|----------------       |----------------


e|-------3--------       |-------0--------      
a|-----3-------3--       |-----3---3------ 
d|---0-------0---0       |---0-------0---0 
g|----------------       |----------------
h|-2--------------       |-3-----------3--
e|----------------       |----------------


- Refreng -

e|-------0--------       |-------0--------      
a|-----1-------1--       |-----0-------0--
d|---2-------2---2       |---0-------0---0
g|----------------       |----------------
h|-0--------------       |----------------
e|----------------       |-0--------------


e|-------3--------       |-------0h2------      
a|-----3-------3--       |-----3-------3-- 
d|---0-------0---0       |---2-------2---2 
g|----------------       |-0--------------
h|----------------       |----------------
e|-3--------------       |----------------

e|-------0--------       |-------0--------      
a|-----1-------1--       |-----0-------0--
d|---2-------2---2       |---0-------0---0
g|----------------       |----------------
h|-0--------------       |----------------
e|----------------       |-0--------------


e|-------3--------       |-------2--------      
a|-----3-------3--       |-----3-------3-- 
d|---0-------0---0       |---2-------2---2 
g|----------------       |-0--------------
h|----------------       |----------------
e|-3--------------       |----------------


- Bridge -

e|-------3--------       |-------2--------      
a|-----3-------3--       |-----1-------1--
d|---0-------0---0       |---2-------2---2
g|----------------       |-1--------------
h|-3--------------       |----------------
e|----------------       |----------------


e|-------0-------2       |-------0--------      
a|-----0-------3--       |-----3-------3-- 
d|---0-------2----       |---0-------0---0 
g|---------0------       |----------------
h|----------------       |-3--------------
e|-0--------------       |----------------

e|-------0--------       |-------0--------      
a|-----3-------3--       |-----0-------0--
d|---0-------0---0       |---0-------0---0
g|----------------       |----------------
h|-3--------------       |----------------
e|----------------       |-0--------------

e|-------2--------       |-------2--------     
a|-----3-------3--       |-----3-------3--
d|---2-------2---2       |---2-------2---2
g|-0--------------       |-0--------------
h|----------------       |----------------
e|----------------       |----------------

e|-------3--------       |-------2--------      
a|-----3-------3--       |-----1-------1--
d|---0-------0---0       |---2-------2---2
g|----------------       |-1--------------
h|-3--------------       |----------------
e|----------------       |----------------


e|-------0-------2       |-------0--------      
a|-----0-------3--       |-----3-------3-- 
d|---0-------2----       |---0-------0---0 
g|---------0------       |----------------
h|----------------       |-3--------------
e|-0--------------       |----------------

e|-------0--------       |-------0--------      
a|-----3-------3--       |-----3-------3-- 
d|---0-------0---0       |---0-------0---0 
g|----------------       |----------------
h|-3--------------       |-3--------------
e|----------------       |----------------

e|-------2--------       |-2--------------      
a|-----3-------3--       |-1-------------- 
d|---2-------2---2       |-2-------------- 
g|----------------       |-1--------------
h|-0--------------       |-0--------------
e|----------------       |----------------


This is my confessional song
Coz’ I can’t take this anymore
This was never intentional
This wasn’t how I planned it at all
      
Is it all in my head, in my head
Is it all in my head, in my head

I don’t know if you know by now
But I kind of hope that you don’t 
Cuz’ your already spoken for
And I’d be a fool to ask for yall’ heart

Is it all in my head, in my head
Is it all in my head, in my head

And maybe one sweet day I will get over you
And your face, your voice, your touch wont haunt my dreams
But no one in this world has made me feel like you do
So maybe you will always have a hold on me

Cuz’ it’s all in my head, in my head
Yeah it‘s all in my head, in my head
Oh it’s all in my head, in my head
Yeah it’s all in my head, in my head

This is my confessional song

Kommentarer:

Dette feltet skal ikke fylles ut:
  • Gjest
    Ehm, den er nesten riktig. Bare at du har skrevet eadghe når d skal være ehgdae.
  • Ingrid (Gjest)
    Denne sangen er så fin
  • Petter VF (Gjest)
    ..men, egentlig, for å være helt presis, så er det en Fdim
  • Petter VF (Gjest)
    Det er en D#dim akkord, ikke en vanlig D#-dur
  • problem (Gjest)
    men det gjør det ifølge pappa
  • problem (Gjest)
    er du sikker på at rad nummer to på første vers i tabulator er helt riktig? det stemmer ikke helt ifølge meg og gitaren min
  • Se alle kommentarer
Lagre i egne samlinger
Vurderinger