Flåklypa

av lilbarbie 29/08-2010
|---0-2-3-2-0-----|-----------------|------------|

|-0-----------3-0-|-----0-1-0-------|-0----------|

|-----------------|-0-2-------2-0-2-|---2-0------|

|-------------0---|-----------------|-------4----|

|-----2-----3-----|-----------0-----|-2-----2----|

|-0-------------3-|-----0-----------|------------|





|---0-2-3-2-0-----|----------------------|

|-0-----------3-0-|-----0----------------|

|-----------------|-0-2---2-0------------|

|-------------0---|-----------4-2-1-2----|

|-----2-----3-----|-----------2-2-2------|

|-0-------------3-|-----0-----------0----|


Litt mer avansert versjon av Flåklypa, høres mest rett ut i mine ører :-)

Andre versjoner:

Kommentarer:

Dette feltet skal ikke fylles ut:
  • Aleksander (Gjest)
    Reesten a?
  • Gjest
    Fin sang
  • Kruso (Gjest)
    lækkert, vart litt bædre klang i denna
  • Guitardude
    :/
  • Jarand (Gjest)
    Endelig en bedre versjon, takk
  • buddeie97
    Lett og spille og veldig fin kombinasjon av tonene
  • Se alle kommentarer
Lagre i egne samlinger