Fossegrim

av October 10/01-2011
Artist: Kvelertak
Tittel: Fossegrim
Album: Kvelertak (2010)
Tabbet av October

Taben er ikke fullstendig, men fanger det store bildet :)


Intro:

       Noe lick her                       "Fossegrim!"
e||-----------------------------------------------
H||-----------------------------------------------
G||-7--7---------------------7-7-7-7-7-7----------
D||-7--7---7-7-7-7-7-7-7-7-7-7-7-7-7-7-7----------
A||-5--5---5-5-5-5-5-5-5-5-5-5-5-5-5-5-5----------
E||-----------------------------------------------


Vers: x3
e||----------------------------------------------------------|
H||----------------------------------------------------------|
G||---7--7---/10-10-\9-9-\6-6-/7-------7--7---/10-10-\9-?----|
D||---7--7---/10-10-\9-9-\6-6-/7-------7--7---/10-10-\9-?----|
A||-5---5--5-------------------------5---5--5-----------?----|
E||----------------------------------------------------------|

e||----------------------------------------------------------|
H||----------------------------------------------------------|
G||---7--7---/10-10-\9-9-\6-6-/7-------7--7---/10-10-\9------|
D||---7--7---/10-10-\9-9-\6-6-/7-------7--7---/10-10-\9-8----|
A||-5---5--5-------------------------5---5--5-----------8----|
E||-----------------------------------------------------6----|


Overgang før refreng:
e||----------------8-----|
H||-10-10-10--8------10--|
G||-------------10-------|
D||----------------------|
A||----------------------|
E||----------------------|


Refreng: x3
e||-----------------------------------------------------------------------------------|
H||-----------------------------------------------------------------------------------|
G||-7---------------------5--7---------------------5----------------------------------|
D||-7-7-7-7-7-7-7-7-----5----7-7-7-7-7-7-7-7-----5---8------------------------5--5-5--|
A||-5-5-5-5-5-5-5-5-5-7------5-5-5-5-5-5-5-5-5-7-----8--8-10-8-8--10---3--3-3-3--3-3--|
E||--------------------------------------------------6--6-6--6-6--6----1--1-1---------|


Mellomspill:

Mørk stemme:
Hører en ekstra mørk tone her, enten er den stemt ned, eller så er det en 7-strenggitar.
                                                                           ___
e||----------------------------------------------------------------------------------|
H||----------------------------------------------------------------------------------|
G||----------------------------------------------------------------------------------|
D||--------------------------------------------------------------------3-5-353-------|
A||---5---5---5---3-5---5---5---5---3-5---5---5---5---3-5---5---5--3-5---------3-5---|
E||----------------------------------------------------------------------------------|
H||-3---3---3---3-----3---3---3---3-----3---3---3---3-----3---3----------------------|

Lys stemme:
                                                             ________
e||--------------------5---5---5---3--5----------------13-15-13-15-13---------|
H||---6---6---6---5-6---------------------15--15--13-15----------------13-15--|
G||-------------------------------------8---8---8-----------------------------|
D||---------------------------------------------------------------------------|
A||-5---5---5---5-----5---5---5---5-------------------------------------------|
E||---------------------------------------------------------------------------|


Vers: x2


Solo går over refrenget:


Mellomspill: Tremolo med 4 anslag pr. note
Ikke bombesikker på denne, da det er to stemmer, så jeg roter litt :)
e||-----------------------------------------------|
H||-----------------------------------------------|
G||-----------7-6-10-9-6-7------------------------|
D||-------8-7--------------7-8--------------------|
A||-5-8-7----------------------7-8-7--------------|
E||-----------------------------------------------|

e||-----------------------------------------------|
H||-----------------------------------------------|
G||-----------------------------------------------|
D||-----------------------------------------------|
A||-5-4-3-2-1-------------------------------------|
E||-----------5-4---------------------------------|



Lite lick etter mellomspill før solo:
e||-10-10-10--8----8-10--|
H||-------------10-------|
G||----------------------|
D||----------------------|
A||----------------------|
E||----------------------|


Refreng: x4






Husk at, om du liker taben, så skal det ikke mye til for å glede
den som lagde den med å si Takk! ;)

Andre versjoner:

Kommentarer:

Dette feltet skal ikke fylles ut:
  • endre (Gjest)
    fantastisk, skal prøve senere idag på gitar, keep up the good work ^^
  • TAB (Gjest)
    Knall!
  • AndyPandy! (Gjest)
    Takk! Stemmer ganske bra!
  • !,,! (Gjest)
    FOSSEGRIM!
    bra insh okt!
  • Jonas Persen (Gjest)
    den er vel egentlig i drop -D siden det er noen unødvendig grep man må ta på refrenget
  • Eldar (Gjest)
    takk!!
  • Se alle kommentarer
Lagre i egne samlinger
Vurderinger