Blodtørst

av Sundefan 01/02-2011
|-----------------------------------------------------------|
|-----------------------------------------------------------|
|-----------------------------------------------------------|
|-2-2-2-2-2-2-5--2-2-2-2-2-2-7--2-2-5--2-2-7--------------3-|
|-0-0-0-0-0-0-3--0-0-0-0-0-0-5--0-0-3--0-0-5--2-3-3-2-2-2-1-|
|---------------------------------------------0-1-1-0-0-0---|





|-----------------------------------------------------------|
|-----------------------------------------------------------|
|-----------------------------------------------------------|
|-2-2-2-2-2-2-5--2-2-2-2-2-2-7--2-2--2-2------------------3-|
|-0-0-0-0-0-0-3--0-0-0-0-0-0-5--0-0--0-0------2-3-3-2-2-2-1-|
|---------------------------------------------0-1-1-0-0-0---|


                            
|------------------|---------|------------------------------|
|------------------|---------|------------------------------|
|------------------|9-7-7-7-7|-9-7-7-5-5-7-7----------------|
|-2-2-2-2-2-2-5----|7-5-5-5-5|-7-5-5-3-3-5-5----------------|
|-0-0-0-0-0-0-3----|---------|---------------3-3-3-5-5-2-2--|
|------------------|---------|---------------1-1-1-3-3-0-0--|



|-------------------------------------------------------------|
|-------------------------------------------------------------|
|-------------------------------------------------------------|
|-3-3-3-3-3-3-6--3-3-3-3-3-3-6--3-3-6--3-3-6--------------3-2-|
|-1-1-1-1-1-1-4--1-1-1-1-1-1-4--1-1-4--1-1-4--2-3-3-2-2-2-1-0-|
|---------------------------------------------0-1-1-0-0-0-----|


|------------------------------------------------------------|
|---------------------------8--------------------------------|
|---5-7-7/9---------5-7-7/9---7-5-7-----5-7-7/9-----7p5-----5|
|-7---------7-7---7-------------------7---------5-5-----7-7--|
|------------------------------------------------------------|
|------------------------------------------------------------|


|------------------------------------------------------------
|------------------------------------------------------------
|-------------------------------------11---------------------
|----8-10-10/12------------8-10-10/12----10-8-10------8-10---
|-10------------10-10---10-------------------------10--------
|------------------------------------------------------------


 ----------------------------------|
 ----------------------------------|
 -10/12-----10p8-------8-----------|
 -------8-8------10-10-------------|
 ----------------------------------|
 ----------------------------------|


Dette kommer etter outro soloen
|---------------------------------------------------???----|
|---------------------------------------------------???----|
|---------------------------------------------------???----|
|-5-5-5-5-5-8-8--5-5-5-5-5-5-8-8--------------8-8---???----|
|-3-3-3-3-3-6-6--3-3-3-3-3-3-6-6--6-6-6-6-6-6-6-6---???----|
|---------------------------------4-4-4-4-4-4-------???----|


|----------------------------------------------------------|
|----------------------------------------------------------|
|----------------------------------------------------------|
|-6-6-6-6-6-9--6-6-6-6-6-6-9--6-6------7-6-----------------|
|-4-4-4-4-4-7--4-4-4-4-4-4-7--4-4------5-4-----------------|
|----------------------------------------------------------|


Det er noen riff eg ikkje har med, men her har dere det meste av Blodtørst.

Andre versjoner:

Kommentarer:

Dette feltet skal ikke fylles ut:
  • Metallduden (Gjest)
    Jævli rå!!!
  • Karmaa (Gjest)
    Bra jobba!
  • yeahs (Gjest)
    http://tabs.ultimate-guitar.com/k/kvelertak/blodtorst_tab.htm

    Funker som faen i drop-D
  • October
    Purified ja, det må du absolutt få lagt ut!
  • Sundefan
    takk Ja de kan godt vera at det kommer fleire tabs fra Kvelertak. Tenkte hvertfall at eg skulle legga ut litt Purified in Blood
  • Kvelertak kongen (Gjest)
    Bra jobbet... sier ikkje neitakk til flere tabs av kvelertak takk takk !!!!
Lagre i egne samlinger
Vurderinger