C
Vi lister oss så stilt på tå 
                  G 
når vi skal ut og røve

Vi røver bare det vi må, 
                C 
og det som vi behøver. 
   F
Nå ligger mørket over land 
  C          
i byen sover alle mann. 
   G     
Da drar vi av gårde med sekker og spann, 

både Kasper og Jesper og Jonatan 


Og kommer vi til bakerns hus 
vi røver ikke mye - 
litt brød og kaker og litt brus 
og så litt drops for bryet
Så hender det at Jonatan 
vil ha en peperkakemann 
men ellers så tar vi så lite vi kan, 
både Kasper og Jesper og Jonatan 

Hos Slaktern tar vi servelat 
og biff når vi behøver 
og så litt flesk til løvemat 
for det er godt for løver. 
Litt oksestek kan og gå an, 
og så litt pølser dann og vann, 
men ellers så tar vi så lite vi kan, 
både Kasper og Jesper og Jonatan. 

Og blir det kaldt, så må vi ha 
litt klær å ha på kroppen. 
En vinterfrakk er god å ha 
og så en hatt på toppen. 
Vi vet om en butikk med klær, 
og alt vi trenger finnes der. 
Men ellers så tar vi så lite vi kan, 
både Kasper og Jesper og Jonatan 

Og når vi så har sekken full 
og litt av hvert i spannet, 
vi tar med oss litt sølv og gull, 
og rusler ut på landet. 
Da er vi sultne alle mann, 
og deilig mat vi gjør i stand. 
Men ellers så gjør vi så lite vi kan, 
både Kasper og Jesper og Jonatan


Riff 1: Intro / mellomspill
Riff 2: Vers
Riff 3: Refreng (og ellers så tar vi så lite...)


Riff 1:
e||-----------------------------------------------|
H||-----------------------------------------------|
G||-----------------------------------------------|
D||-----------------------------------------------|
A||-3-2-0--02-3-2-0-------------------------------|
E||-------3---------3-----------------------------|

Riff 2:
e||-----------------------------------------------------------|
H||-----------------------------------------------------------|
G||-----------------------------------------------------------|
D||-----------------------------------------------------------|
A||-3-2-3-5-3-2-----3-2-3-5-3-2---5-4-5-7-5-2-----5-4-5-7-5-3-|
E||-------------5-3---------------------------3-3-------------|

e||-----------------------------------------------|
H||-----------------------------------------------|
G||------0-2-2-------------0----------------------|
D||-3-3-3------3-3-2-2-2-3---3-2-2----------------|
A||-----------------------------------------------|
E||-----------------------------------------------|

Riff 3:
e||-----------------------------------------------|
H||-----------------------------------------------|
G||-------------------------0-2-0-----------------|
D||-0-2-3-0-2-3-0-2-3-0-2-3-------3-2-0-----------|
A||-------------------------------------3-3-3-----|
E||-----------------------------------------------|

Andre versjoner:

Kommentarer:

Dette feltet skal ikke fylles ut:
  • Markus Johan Olsen S (Gjest)
    Fantastisk flott sang. Liker hvordan melodien fremhever budskapet og hvordan det lyriske "jeg" kommer til uttrykk.
  • Petur (Gjest)
    De to sidste linjer er vist nok G Dm / G C. Vi har prøvet den på skolen, og det var det vi fandt frem til. De to sidste linjer indeholder også trioler (triplets). Lidt mærkeligt at spille på guitar.
  • October
    Så du la ut en versjon ja, men har ikke prøvd den, så vet ikke hvilken som er mest riktig. :P Denne passer fint til Ræga Råkkers sin cover-parodi i hvert fall
  • Machomannen
    Kan jeg spørre hvem du har fått inspirasjon til låtvalg av?
Lagre i egne samlinger
Vurderinger