Bare 4 år

av Ukjent 24/02-2007
Bare 4 år  
- Luxus Leverpostei

Tab: October
Tekst/grep: Ukjent

Intro:  
E||------------------------|-----------------------|--------------------------|
B||------------------------|-----------------------|--------------------------|
G||------------------------|-----------------------|--------------------------|
D||------------------------|-----------------------|--7----5----4----4--5--7--|
A||-------------5-------5--|------------7-------7--|--------------------------|
E||---3----7---------7-----|--5----8---------8-----|--------------------------|


----------------------|
----------------------|
----------------------|
----------------------|
--7------5--5---------|
----------------------|

G		  Am
Pappa sier det at barn skal holde kjeft
   D			     G		     D
og alltid finne seg i at dem voksne dem har rett.
G			    Am
Å se på skrekkfilm det ække bra, det sier han,
D				     G	         D
men sjøl så har'n en video der dem spiser tissemann.


G		     Am
Jeg er bare fire år, det er så lite jeg forstår,
D			
men det jeg vet, ja det vet jeg godt
	  G		       D
og får jeg vite noe mer, ja så kaster jeg opp.
G				Am
De skal jo lissom lære meg alt, om hva er rett og hva er galt,
D			     G		       D
så gjør de selv det motsatte av hva de har fortalt.


Under pappas lenestol fins det bilder av noen sexsymbol,
som viser hva de tisser med, for det er slikt gamle griser liker å se.
Han lager sinnabrus i kjelleren, det er hans egen hemmelighet,
men det er noe både jeg og hele barnehagen vet.


Jeg er bare fire år, det er så lite jeg forstår,
men det jeg vet, ja det vet jeg godt
og får jeg vite noe mer, ja så kaster jeg opp.
De skal jo lissom lære meg alt, om hva er rett og hva er galt,
så gjør de selv det motsatte av hva de har fortalt.

Solo:
E|----------------------|-------------------------|
B|----------------------|-------------------------|
G|---------------4------|---------------4---------|
D|--5--------------7-5--|--7---5----------7-5--7--|
A|----------------------|----------7--------------|
E|----------------------|-------------------------|

 
-------------------------|------------------------|
-------------------------|------------------------|
-----4--7--4-------------|----7--------7-5-4-5----|
--L----------7-5---------|------------------------|
--------------------5----|--L---------------------|
-------------------------|------------------------|

       
------------------------------|-----||
------------------------------|-----||
--7-5-4-5--7-5-4--------------|-----||
-----------------5/--7\--5----|-----||
------------------------------|-----||
------------------------------|-----||

Pappa går på golfklubb og mamma går på pub,
da får storesøstera mi besøk av en jævla kødd,
han leser høyt fra bibelen mens han beføler hennes lår.
Han er nemlig leder i bibelgruppa der som storesøster går.


Jeg er bare fire år, det er så lite jeg forstår,
men det jeg vet, ja det vet jeg godt
og får jeg vite noe mer, ja så kaster jeg opp.
De skal jo lissom lære meg alt, om hva er rett og hva er galt,
så gjør de selv det motsatte av hva de har fortalt.


-----------------------------------------------------------------------

Hele teksten sammenhengende:


G		  Am
Pappa sier det at barn skal holde kjeft
   D			     G		     D
og alltid finne seg i at dem voksne dem har rett.
G			    Am
Å se på skrekkfilm det ække bra, det sier han,
D				     G	         D
men sjøl så har'n en video der dem spiser tissemann.

G		     Am
Jeg er bare fire år, det er så lite jeg forstår,
D			
men det jeg vet, ja det vet jeg godt
	  G		       D
og får jeg vite noe mer, ja så kaster jeg opp.
G				Am
De skal jo lissom lære meg alt, om hva er rett og hva er galt,
D			     G		       D
så gjør de selv det motsatte av hva de har fortalt.

Under pappas lenestol fins det bilder av noen sexsymbol,
som viser hva de tisser med, for det er slikt gamle griser liker å se.
Han lager sinnabrus i kjelleren, det er hans egen hemmelighet,
men det er noe både jeg og hele barnehagen vet.

Jeg er bare fire år, det er så lite jeg forstår,
men det jeg vet, ja det vet jeg godt
og får jeg vite noe mer, ja så kaster jeg opp.
De skal jo lissom lære meg alt, om hva er rett og hva er galt,
så gjør de selv det motsatte av hva de har fortalt.

Pappa går på golfklubb og mamma går på pub,
da får storesøstera mi besøk av en jævla kødd,
han leser høyt fra bibelen mens han beføler hennes lår.
Han er nemlig leder i bibelgruppa der som storesøster går.

Jeg er bare fire år, det er så lite jeg forstår,
men det jeg vet, ja det vet jeg godt
og får jeg vite noe mer, ja så kaster jeg opp.
De skal jo lissom lære meg alt, om hva er rett og hva er galt,
så gjør de selv det motsatte av hva de har fortalt.





*********************************************
* Denne filen er forfatterens egen tolkning *
* av sangen, skrevet ned kun etter øret.    *
* Den er kun beregnet til privat bruk.      *
*********************************************

Kommentarer:

Dette feltet skal ikke fylles ut:
  • Kristoffer (Gjest)
    Hvordan skal man strumme?
  • Gjest
    nesegang fullfør sangene med grep hele vegen ned
  • Trygveberg
    Mangler siste soloen!

    Post viss noen kan

    Ellers brabra!
Lagre i egne samlinger