Hvis du rekke ut ei hand

av Steffen 14/07-2011
Intro

-----------------------------------------------------------------------------
--s12--10--------------------------------------------------------------------
------------12--11---9---9-----------------------9---9-----------------------
----------------------------12--12------9---10----------12--10--9------------
------------------------------------12---------------------------------------
-----------------------------------------------------------------------------


---------------------------------------------------------------------------
--s12--10------------------------------------------------------------------
------------12--11---9---9---11--------------------------------------------
---------------------------------12-------9---10---10---9------------------
-------------------------------------12---------------------12----10-------
---------------------------------------------------------------------------

Solo
--------------------------------------------------------------------------
--------------------------------------------------------------------------
---14p12-------12---14b16------14p12------12------------------------------
----------14--------------------------14-------14p12----------------------
--------------------------------------------------------------------------
--------------------------------------------------------------------------

--------------------------------------------------------------------------
---------------------------15---------------------------------------------
---14p12-------12---14b16------16p14------14p12-------12------------------
----------14--------------------------16----------14----------------------
--------------------------------------------------------------------------
--------------------------------------------------------------------------

--------------------------------------------------------------------------
15-15-15----15-15-15----15-15-15---------15-15-15----15-15-15----15-15-15-
--------------------------------------------------------------------------
--------------------------------------------------------------------------
--------------------------------------------------------------------------
--------------------------------------------------------------------------

--------------------15---15p17-----17-------------------------------------
----15--15s17--17---------------------------------------------------------
--------------------------------------------------------------------------
--------------------------------------------------------------------------
--------------------------------------------------------------------------
--------------------------------------------------------------------------


--------------------------------------------------------------------------
----12---12s15---15v----12B---12------------------------------------------
-----------------------------------14---12v-------------------------------
--------------------------------------------14---12v----------------------
--------------------------------------------------------------------------
--------------------------------------------------------------------------

Kommentarer:

Dette feltet skal ikke fylles ut:
Lagre i egne samlinger
Vurderinger