Nå tennes tusen julelys

av Machomannen 03/12-2011
Her er et klassisk arrangement av ''Nå tennes tusen julelys''. 
Den inneholder intro, mellomspill og selve verset. Den skal være
relativt grei å finne ut av, men det er bare å spørre
om noe er uklart.

Intro:

e|---3----------------3--------------|--3----------------3-------------|
B|---3-----------3----3-----------3--|--3-----------3----1-------------|
G|-----------0----------------0------|----------0--------2-----7-------|
D|-------0----------------0----------|------2------------0-------------|
A|--------------------2--------------|--3------------------------------|
E|---3-------------------------------|---------------------------------|


Vers:

e|:--7-------7-------5-------5-----|--3-------0------------------------|
B|:--0-------0-------3-------3-----|--3-------3-------3-----------3----|
G|:------7-------7-------0-------0-|------0-------0---0-------0--------|
D|:--5---------------4-------------|----------------------0------------|
A|:--------------------------------|--3---------------2----------------|
E|:--------------------------------|-----------------------------------|


e|-0-------0-------5-------2-----|-------------------------------------|
B|-3-------3-------5-------2-----|--3------------3---------------------|
G|-----0-------0-------4-------0-|--------0----------7-----------------|
D|-------------------------------|-----4-----4---4---------------------|
A|-3---------------4-------0-----|--5------------5---------------------|
E|-------------------------------|-------------------------------------|


e|-10-------10-------8-------8-----|--7-------3-------0-----------0----|
B|--8--------8-------7-------7-----|--0-------3-------3-------3--------|
G|------7--------7-------9-------7-|------7-------0-------0------------|
D|--9----------------7-------0-----|--5--------------------------------|
A|---------------------------------|----------2-------3----------------|
E|---------------------------------|-----------------------------------|


Mellomspill:

e|--2-------2-------5-------5------|--3-------------------------------:|
B|--1-------1-------3-------3------|--1-----------1---0---------------:|
G|------2-------2-------5-------5--|----------0-------0----7----------:|
D|------------------0--------------|------0---------------------------:|
A|--0------------------------------|----------------------------------:|
E|---------------------------------|--3-------------------------------:|

e|--3---------------3--------------|--3---------------5----8-----10----|
B|--3-----------3---3-----------3--|--3-----------3---4----7------8----|
G|----------0---------------0------|----------0----------5----8--------|
D|------0---------------0----------|------2-----------0-----------9----|
A|------------------2--------------|--3--------------------------10----|
E|--3------------------------------|-----------------------------------|


Fortsettelse:

e|--10---------------5-------3-----|--2-----------2---0----------------|
B|---7-------7-------3-------3-----|--3-------3-------3----------------|
G|-------7-------7-------3-------3-|------2-----------0------2---------|
D|---0---------------0-------------|-----------------------------------|
A|---------------------------------|--2---------------0----------------|
E|---------------------------------|-----------------------------------|

e|--2-----2------0-----0-----------|-----------------------------------|
B|--3-----3------0-----0-----------|--3-----0--------------------------|
G|-----2-----2------2-----2--------|--0-----0-----2-----2---2----------|
D|--0------------------------------|-----0-----0-----0-----------------|
A|---------------4-----------------|-----------------------------------|
E|---------------------------------|--3-----------2--------------------|

e|------------------0--------------|-----------------------------------|
B|--0-------0-------3-------2------|-----------2-----------------------|
G|--0-------0-----------4---1------|--2-----2-----2------2-------------|
D|------0-------0------------------|-----2-----------2-------2---------|
A|------------------------------2--|--0--------------------------------|
E|--3-------2-------4-------0------|---------------------3-------------|

e|--5-------5-------3-------3------|--2--------------------------------|
B|--3-------3-------5-------2------|--3-------3-------0-----------0----|
G|------2-------2-------4-------3--|------2---2-------0-------0--------|
D|--------------------------2------|--------------4-------0------------|
A|------------------4--------------|--2-------0------------------------|
E|--2------------------------------|------------------3----------------|

e|------------------0-------0------|-----------------------------------|
B|--2-------2-------0-------0------|--3-----------3--------------------|
G|--0-------0-----------2-------2--|--0-------0------------2-----------|
D|------2-------2------------------|------4-----------4----------------|
A|--0---------------4--------------|--5---------------5----------------|
E|---------------------------------|-----------------------------------|

e|--0-------2---3---3---2----------|------0-----3-----9-----10---------|
B|--3-----------------------3------|--3---------2-----8------7---------|
G|------0-----------2-----------2--|--0---------3-----9------7---------|
D|---------------------------------|--2---------2-----8------0---------|
A|---------------------------------|--1--------------------------------|
E|--3---------------2--------------|-----------------------------------|

Andre versjoner:

Kommentarer:

Dette feltet skal ikke fylles ut:
  • Inspirert person (Gjest)
    10/10
  • Mads (Gjest)
    HELT KONGE!!!!
Lagre i egne samlinger
Vurderinger