Du gråter så store tåra

av Pitmairen 07/01-2012
Capo på 3. bånd
Stemming: DADGHE

Fingerspill 1:
|-2----0-2-3-2-0-----------------------------------
|----------------3----0-----0----------------------
|-----2---------------0-----4/6--------------------
|---0-----------------0-0-7-0------7-0-------------
|--------------------------------------------------
|-0-------------------5-----5/7---7----------------

Samme som nr. 1 bare litt forskjell i begynnelsen:
|---2-0-2-3-2-0------------------------------------
|---------------3---0-----0------------------------
|-------------------0-----4/6----------------------
|-------------------0-0-7-0------7-0---------------
|--------------------------------------------------
|-0-----------------5-----5/7---7------------------

Fingerspill 2:
|-2---3---5----------------------------------------
|--------------------0-----0-----------------------
|----2---2-----2-----0-----4/6---------------------
|---0---0----0---0---0-0-7-0------7----------------
|--------------------------------------------------
|-0------------------5-----5/7---7--0--------------

Fingerspill 3:
|--------------------------------------------------
|--------------------------------------------------
|---4---4---4--------------------------------------
|---4---4---4-------5---5---5---5---7---7---7---7--
|-2---2---2---------5---5---5---5---7---7---7---7--
|--------------4--5---5---5---5---7---7---7---7----
Du gråter så store tåra, nå for tida Dem låg der å venta, som dønninga Ute på havet, i har sett dem komme Ute på havet, i har sett dem vokse I gynger med dønningan Slagsida blir tyngre og tyngre I har sett me på di side For at vi ska flyte, litt lengre I lar deg ikkje synke, vi e nesten hjemme Du og i, i e med deg All alltid, du og i Du gråter så store tåra, nå for tida Dem låg der å venta, som dønninga Ute på havet, i har sett dem komme Ute på havet, i har sett dem vokse I gynger med dønningan I gynger med dønningan Du og i, i e med deg All alltid, du og i I e med deg alltid Du og i, i e med deg alltid.

Kommentarer:

Dette feltet skal ikke fylles ut:
  • Spira (Gjest)
    Så vidunderlig sart og flott sang og fremførelse !!!!
  • Gjest
    Greetings my Norwegian friends! I came to the sight looking for a basic tab, then I listened to Ane play it and I think the song is actually played like this and is tuned to DADGflatAD. I had to google translate the hell out of the sight to get logged in- so I hope this is helpful. Enjoy!

    E|--4--------2--4--5--4--2--0----------------------------
    B|-----0-----------------------------0-------------0-----
    G|--------0--------------------5--------5--5/7--------7--
    D|-----------------0--------------0-------------0--------
    A|-------------------------------------------------------
    E|--0--------------------------5-----------5-7-----------
    
    
    
    E|--4--------5--------7-------------------------------------
    B|-----0--------0--------0-----0--------0-------------0-----
    G|--------0--------0--------0-----5--------5--5/7--------7--
    D|-----------------------------------0-------------0--------
    A|----------------------------------------------------------
    E|--0--------0--------------------5-----------5-7-----------
    
    
    
    E|-----------------------------------------------------
    B|--2-----2-----2-----4-----5-----5-----5-----5-----7--
    G|--0-----0-----0-----0-----0-----0-----0-----0-----0--
    D|-----------------------------------------------------
    A|--2--2-----2-----2-----------------------------------
    E|--------------------4--4-----5-----5-----5-----5--7--
    
    
    
    E|-----------------------
    B|-----7-----7-----7-----
    G|-----0-----0-----0-----
    D|-----------------------
    A|-----------------------
    E|--7-----7-----7-----7--
    


    Pitmairen-edit: Added tab-tag
  • Lene (Gjest)
    Kan noen skrive inn akkordene? Klarer ikke å lese tab....
  • Bob (Gjest)
    Meget
  • Sofia (Gjest)
    Såhär istället:
    Fingerspill 1:
    |-4----2-4-5-4-2-0---------------------------------
    |--------------------------------------------------
    |-----0---------------5-----5/7---0---0------------
    |---0-----------------0-----0-----7---7------------
    |--------------------------------------------------
    |-0-----------------5---5-------7---7--------------
  • Sofia (Gjest)
    Tack för tabben!
    Men jag är rätt säker på att hon spelar i öppet D, alltså;
    DADF#AD
    DÅ blir det lättare att spela den också
  • Se alle kommentarer
Lagre i egne samlinger
Vurderinger