SKAMBANKT - SKAMBANKT!

BASS TABS

STANDARD TUNING: E, A, D, G

INTRO
  E
||--------------------||X3
||--------------------||
||77--777--777--779910||
||--------------------||
  E
 |--------------------|
 |--------------------|
 |77--777--77---------|
 |--------------------|
[E] [C] [E]
||--------------------||X2 |--------------------|--------------------|
||--------------------||   |--------------------|--------------------|
||77--777--777--779910||   |-------------10-----|77-777-777-775109---|
||--------------------||   |88-888-888-8----10--|--------------------|

[E] [C] [E]
||--------------------||X2 |--------------------|--------------------|
||--------------------||   |--------------------|--------------------|
||77--777--777--779910||   |-------------10-----|77-777-777-775109---|
||--------------------||   |88-888-888-8----10--|--------------------|

VERSE 1
[E] [C] [E]
||--------------------||X2  |--------------------|--------------------|
||--------------------||    |--------------------|--------------------|
||77--777--777--779910||    |-------------10-----|77-777-777-77---5---|
||--------------------||    |88-888-888-8----10--|--------------------|

PRE-CHORUS 1
[G] [H] [HD]
|---------------|---------------|
|55-555-599-999-|9--------------|
|---------------|--5-----5-7----|
|---------------|---------------|

CHORUS 1
[E] [C] [E]
||--------------------||X2  |--------------------|--------------------|
||--------------------||    |--------------------|--------------------|
||77--777--777--779910||    |-------------10-----|77-777-777-775109---|
||--------------------||    |88-888-888-8----10--|--------------------|

BRIGDE 1
[G] [H] [HE] [G] [H] [H] [A]
|---------------|------------------|---------------|------------------|
|55-555-599-999-|9-----------------|55-555-599-999-|9-7---------------|
|---------------|-77-777-777-775109|---------------|------------------|
|---------------|------------------|---------------|------------------|

VERSE 2
[E] [C] [E]
||--------------------||X2  |--------------------|--------------------|
||--------------------||    |--------------------|--------------------|
||77--777--777--779910||    |-------------10-----|77-777-777-77---5---|
||--------------------||    |88-888-888-8----10--|--------------------|

PRE-CHORUS 2
[G] [H] [HD]
|---------------|---------------|
|55-555-599-999-|9--------------|
|---------------|--5-----5-7----|
|---------------|---------------|

CHORUS 2
[E] [C] [E]
||--------------------||X2  |--------------------|--------------------|
||--------------------||    |--------------------|--------------------|
||77--777--777--779910||    |-------------10-----|77-777-777-775109---|
||--------------------||    |88-888-888-8----10--|--------------------|

BRIGDE 2
[G] [H] [HE] [G] [H] [H] [A]
|---------------|------------------|---------------|------------------|
|55-555-599-999-|9-----------------|55-555-599-999-|9-7---------------|
|---------------|-77-777-777-775109|---------------|------------------|
|---------------|------------------|---------------|------------------|

OUTRO
  E
||--------------------||X4  |--------------------|--------------------|
||--------------------||    |--------------------|--------------------|
||77--777--777--779910||    |---------------10---|77-777-7--7--7-\----|
||--------------------||    |88-888-888-8-10--10-|--------------------|

Andre versjoner:

Kommentarer:

Dette feltet skal ikke fylles ut:
  • erot (Gjest)
    najs!!

    kom gjerne med flere skambanktlåter!

    o dessverre og mantra f.eks?!
  • AlexanderSorensen
    YEAH!
Lagre i egne samlinger
Vurderinger