Riffet fra introet og versene - se her for akkorder på hele låta:
http://nortabs.net/tab/4525/

Stemming: DADF#AD
Capo på 10. bånd

[D] [F#m7]
|---------------------------------------
|-------------0---------------0---------
|---------------------------------------
|---2/4-------------2-------------------
|---------0---------------0-------------
|---0---0---0---0---4---4---4---4-------

    E
|---------------------------------------
|-------------0---------------0---------
|---2-----------------------------------
|---------------------------------------
|---------2-------------0/2-2---2/4-----
|---2---2---2---2---2/4-----------------

[D] [F#m7]
|---------------------------------------
|-------------0---------------0---------
|---------------------------------------
|---2/4-------------2-------------------
|---------0---------------0-------------
|---0---0---0---0---4---4---4---4-------

    E
|---------------------------------------
|-------------0---------------0---------
|---2---------------2-------------------
|---------------------------------------
|---------2---------------2-------------
|---2---2---2---2---2---2---2---2-------

Andre versjoner:

Kommentarer:

Dette feltet skal ikke fylles ut:
  • SOBL (Gjest)
    Har snakket med Marius, og låta går i DAEABE. Modifiser litt, så blir det nok bra
Lagre i egne samlinger
Vurderinger