Dekksgutten - Åge Aleksandersen - SOLO

Komp over soloen:
C - Dm - Em - F - C - G - C (x2)

G - F - C - Dm - F - G

C - Dm - Em - F - C - G - C


|-----------------------------------------------------------------------------|
|-------------------------------------8-8\----------------------------5h6p5---|
|----5h7s9------9h10h12-12p10p9-s-7-5--------9-9h10p9-s-7h9p7---5--7--------7-|
|-5h7-------------------------------------------------------------------------|
|-----------------------------------------------------------------------------|
|-----------------------------------------------------------------------------|

|-----------------------------------------------------------------------------|
|------------------s8p5-6-5s3----------10-13-13-12-13-12-10--------10-12------|
|-5-s4s2r--------------------5-5---/12----------------------12--12------------|
|----------s5-7---------------------------------------------------------------|
|-----------------------------------------------------------------------------|
|-----------------------------------------------------------------------------|

|-----------------------------------------------------------------------------|
|--13p12p10-------------------13-17-17-18p17-p-15---15------------------------|
|---------------12-10-9-12-14----------------------------17p16-----16p14p12---|
|-----------------------------------------------------------------------------|
|-----------------------------------------------------------------------------|
|-----------------------------------------------------------------------------|

|-----------------------------------------------------------------------------|
|-------13-13h15-15--13-15-17-15-13-12-10-------------------------------------|
|-12h14-------------------------------------(/12/10ring---/9/5ring)-----------|
|-----------------------------------------------------------------------------|
|-----------------------------------------------------------------------------|
|-----------------------------------------------------------------------------|

h = hammer on
p = pull off
/ = slide til eller fra
s = slide til
() = ikke komplett slutt, alternativ slutt

Andre versjoner:

Kommentarer:

Dette feltet skal ikke fylles ut:
  • Steinar (Gjest)
    Du burde skrive at taben krever capo på 2. bånd. Har du det, blir den kjempebra
Lagre i egne samlinger
Vurderinger