Du Tok Ikkje Auene Dine Fra Meg

av Ukjent 24/02-2007
Du tok ikkje auene dine frå meg
- Bjørn Eidsvåg

Intro riff:

e|--------------------------|-----------------------------------|
B|--5-7-3-5-5--7-3-5-7-3-5--|--10-12-8-10-10---12-8-10-12-8-10--|
G|--------------------------|-----------------------------------|
D|--5-7-4-5-5-7--4-5-7-4-5--|--10-12-9-10-10-12---9-10-12-9-10--|
A|--------------------------|-----------------------------------|
E|--------------------------|-----------------------------------|

Bro:
                           (live versj)
e||---------------------||------------------------||
B||---------------------||------------------------||
G||---------------------||------------------------||
D||--------------5------||----------------5-------||
A||--7--7-7--5-5---5-7--||--5h7--7-7-5-5----5-7s--||
E||---------------------||------------------------||
h = hammer-on (banke-tone)
s = slide

Spesielle akkorder:

     Dsus4
e||---5----||
B||---3----||
G||---0----||
D||---4----||
A||---5----||
E||---x----||

-> Intro: ||: Em  |  Em  |  Am  |  Am  :|| 2x

-> 1. vers
[Em]Eg såg deg komma.  Eg [Am(7]såg du vaæ rein.
Dsus4                        /F#           Em
Eg blei heillt ifrå meg, forbanna deg og grein.
                                       Am(7)
Eg hadde bedt og ropt så lenge, kvifor kom du ikkje før?
Dsus4                          /F#       Em
Nå vaæ det for seint, eg hadde bolta mi dør.
Eg vaæ ein [Am(7]statue med hjarta som b[Em]anka i granitt.
Berre st[Am(7]einur og ørken vaæ l[Em]andskapet mitt.[D/F#]

-> Refr:
Du t[G]ok ikkje auene dine fr[Hm7]å meg,
du s[C]åg te det sprang vatten fram frå st[D]ein.
Eg kv[G]iskra: Du må ikkje gå ifr[Hm7]å meg!
Du t[C]ok meg tett inn te d[D(/Hm7]eg og grein.    Du gr[Em]ein.

-> Rep intro (bare 1 gang)

-> Vers 2 (samme akkorder som vers 1)

Eg vetækje ka eg fant. Eg vetækje ka eg fekk.
Sjøl om blei trist, va eg heil då du gjekk.
Eg hadde sett eit glimt av himmel, men eg kjennte lukt av jord,
og eg forsto at mårådagen, alt bere dine spor.
Eg fekk pusta i din nåde, eg fekk evne te å sjå
ditt bilde i min neste, eg fekk mot te å gå.

-> Refr

-> Bro:
[Em] [Em] [Em] [Em]

-> Gitarsolo (over verset)

-> Refr

-> Refr med annen tekst:

Der tårane dine møtte jord
vaks ei rosa, vaks ditt ord.
Du sa: Ta imot gåva, bror.
Då du gjekk vaæ det strimer av blod,
i ditt spor.

-> Rep intro




*********************************************
* Denne filen er forfatterens egen tolkning *
* av sangen, skrevet ned kun etter øret.    *
* Den er kun beregnet til privat bruk.      *
*********************************************

Kommentarer:

Dette feltet skal ikke fylles ut:
  • Hemmelig (Gjest)
    Det er en super fin sang !
Lagre i egne samlinger
Vurderinger