Snowboy

av October 02/02-2014
Title: Snowboy
Artist: Morten Abel
Album: Snowboy
Album: Simplified tab by Kjell Selnes
Tempo = 235
Snowboy

Tab fra: http://tabs.ultimate-guitar.com/m/morten_abel/snowboy_guitar_pro.htm
Takk til bruker bakern.

h - hammer on/pull off
g - ghost note



E |----|--2-----3--2----|--0-----2-------|----------------|----------------|
B |----|----------------|----------------|--3--------3----|--------3-------|
G |----|-----2g---------|-----2g---------|--------4-------|-----4----------|
D |----|--0-------------|----------------|----------------|----------------|
A |----|----------------|--0-------------|--2-------------|----------------|
E |----|----------------|----------------|----------------|----------------|


----------|--0-------|--2h-3h-2-------|--0-------------|--2-----3--2----|
-----3----|-----3----|-----------3----|-----2----------|----------------|
--4-------|----------|----------------|--------2-------|-----2g---------|
--5-------|----------|--0-------------|----------------|--0-------------|
----------|--0-------|----------------|--0-------------|----------------|
--3-------|----------|----------------|----------------|----------------|


--0-----2-------|----------------|----------------|----------|--0---------|
----------------|--3--------3----|--------3-------|-----3----|-----3--2---|
-----2g---------|--------4-------|-----4----------|--4-------|------------|
----------------|----------------|----------------|--5-------|------------|
--0-------------|--2-------------|----------------|----------|--0---------|
----------------|----------------|----------------|--3-------|------------|


-------|--5-----5-------|--5-----2-------|--2-----2-------|--2-----------|
--3----|----------------|----------------|----------------|--------3-----|
--2----|-----2g----2g---|-----2g----2g---|-----2g----2g---|-----2g-------|
--0----|--0-------------|--0-------------|--0-------------|--0-----------|
-------|----------------|----------------|----------------|--------------|
-------|----------------|----------------|----------------|--------------|


----------|--0-------|--2h-3h-2-------|--0-------------|--5-----5-------|
-----3----|-----3----|-----------3----|-----2----------|----------------|
--4-------|----------|----------------|--------2-------|-----2g----2g---|
--5-------|----------|--0-------------|----------------|--0-------------|
----------|--0-------|----------------|--0-------------|----------------|
--3-------|----------|----------------|----------------|----------------|


--5-----2-------|--2-----2-------|--2-------------|----------|--0---------|
----------------|----------------|--------3-------|-----3----|-----3--2---|
-----2g----2g---|-----2g----2g---|-----2g---------|--4-------|------------|
--0-------------|--0-------------|--0-------------|--5-------|------------|
----------------|----------------|----------------|----------|--0---------|
----------------|----------------|----------------|--3-------|------------|


-------|--0--0----|--2-------|--0-----2--3----|--2-------|--3-----3-------|
--3----|----------|-----3----|----------------|-----3----|----------------|
--2----|--2--2----|----------|--2-------------|----------|-----4g----4g---|
--0----|----------|--0-------|----------------|----------|----------------|
-------|--0--0----|----------|--0-------------|--2-------|----------------|
-------|----------|----------|----------------|----------|--3-------------|


--2-------------|----------------|--0-------------|--0-----0-------|
--------3-------|--3-----3-------|-----2----------|----------------|
-----2g----2g---|-----2g----2g---|--------2-------|-----2g----2g---|
--0-------------|--0-------------|----------------|----------------|
----------------|----------------|--0-------------|--0-------------|
----------------|----------------|----------------|----------------|


--0-----0-------|--2-------------|----------|----------|--0-------------|
----------------|--------3-------|-----3----|-----3----|-----3--2-------|
-----2g----2g---|-----2g----2g---|--4-------|--4-------|----------------|
----------------|--0-------------|--4-------|--5-------|----------------|
--0-------------|----------------|--2-------|----------|--0-------------|
----------------|----------------|----------|--3-------|----------------|


-------|--2-----3--2----|--0-----2-------|----------------|--------------|
--3----|----------------|----------------|--3--------3----|--------3-----|
--2----|-----2g---------|-----2g---------|--------4-------|-----4--------|
--0----|--0-------------|----------------|----------------|--------------|
-------|----------------|--0-------------|--2-------------|--------------|
-------|----------------|----------------|----------------|--------------|


----------|--0-------|--2h-3h-2-------|--0-------------|--2-----3--2----|
-----3----|-----3----|-----------3----|-----2----------|----------------|
--4-------|----------|----------------|--------2-------|-----2g---------|
--5-------|----------|--0-------------|----------------|--0-------------|
----------|--0-------|----------------|--0-------------|----------------|
--3-------|----------|----------------|----------------|----------------|


--0-----2-------|----------------|----------------|----------|--0---------|
----------------|--3--------3----|--------3-------|-----3----|-----3--2---|
-----2g---------|--------4-------|-----4----------|--4-------|------------|
----------------|----------------|----------------|--5-------|------------|
--0-------------|--2-------------|----------------|----------|--0---------|
----------------|----------------|----------------|--3-------|------------|


-------|--5-----5-------|--5-----2-------|--2-----2-------|--2-----------|
--3----|----------------|----------------|----------------|--------3-----|
--2----|-----2g----2g---|-----2g----2g---|-----2g----2g---|-----2g-------|
--0----|--0-------------|--0-------------|--0-------------|--0-----------|
-------|----------------|----------------|----------------|--------------|
-------|----------------|----------------|----------------|--------------|


----------|--0-------|--2h-3h-2-------|--0-------------|--5-----5-------|
-----3----|-----3----|-----------3----|-----2----------|----------------|
--4-------|----------|----------------|--------2-------|-----2g----2g---|
--5-------|----------|--0-------------|----------------|--0-------------|
----------|--0-------|----------------|--0-------------|----------------|
--3-------|----------|----------------|----------------|----------------|


--5-----2-------|--2-----2-------|--2-------------|----------|--0---------|
----------------|----------------|--------3-------|-----3----|-----3--2---|
-----2g----2g---|-----2g----2g---|-----2g---------|--4-------|------------|
--0-------------|--0-------------|--0-------------|--5-------|------------|
----------------|----------------|----------------|----------|--0---------|
----------------|----------------|----------------|--3-------|------------|


-------||
--3----||
--2----||
--0----||
-------||
-------||

Andre versjoner:

Kommentarer:

Dette feltet skal ikke fylles ut:
Lagre i egne samlinger
Vurderinger