----------------------------------------------------------
              LC clip (YouTube) - Trond Holter
----------------------------------------------------------
Tabbed by: 
iKjetil

YouTube: 
http://www.youtube.com/watch?v=vXFNvRHUECc

Tuning: 
e B G D A E

e|--------------------|-----------------|-7-8-7----------|
B|--------------------|-8-8-7-7-10-10-8-|-------10-8-7---|
G|--9-9-8-8-11-11-9-9-|-----------------|--------------9-|
D|--------------------|-----------------|----------------|
A|--------------------|-----------------|----------------|
E|--------------------|-----------------|----------------|

e|-7-7------------|
B|-----10-8-7-----|
G|------------9-8-|
D|----------------|
A|----------------|
E|----------------|



e|--------------------|-----------------|
B|--------------------|-8-8-7-7-10-10-8-|
G|--9-9-8-8-11-11-9-9-|-----------------|
D|--------------------|-----------------|
A|--------------------|-----------------|
E|--------------------|-----------------|

e|-7-8-7----------|--------------|
B|-------10-8-7---|-----7-8-7----|
G|--------------9-|-8-9----------|
D|----------------|--------------|
A|----------------|--------------|
E|----------------|--------------|


e|--------------------|-----------------|
B|--------------------|-8-8-7-7-10-10-8-|
G|--9-9-8-8-11-11-9-9-|-----------------|
D|--------------------|-----------------|
A|--------------------|-----------------|
E|--------------------|-----------------|

e|-7-8-7----------|-17h19-20-19-17------------------|
B|-------10-8-7---|---------------20-19-17----------|
G|--------------9-|------------------------19-17-16-|
D|----------------|---------------------------------|
A|----------------|---------------------------------|
E|----------------|---------------------------------|


e|--------------------|-----------------|
B|--------------------|-8-8-7-7-10-10-8-|
G|--9-9-8-8-11-11-9-9-|-----------------|
D|--------------------|-----------------|
A|--------------------|-----------------|
E|--------------------|-----------------|

e|-7-8-7----------|--------------|
B|-------10-8-7---|-----7-8-7----|
G|--------------9-|-8-9----------|
D|----------------|--------------|
A|----------------|--------------|
E|----------------|--------------|

e|-15-17-19-17-15----------------------------------15-17-19-|
B|----------------19-17-15----------------15-17-19----------|
G|-------------------------17-16-14-16-18-------------------|
D|----------------------------------------------------------|
A|----------------------------------------------------------|
E|----------------------------------------------------------|

e|-17-19-20-19-17----------------------------------17-19-20-|
B|----------------20-19-17----------------17-19-20----------|
G|-------------------------19-17-16-17-19-------------------|
D|----------------------------------------------------------|
A|----------------------------------------------------------|
E|----------------------------------------------------------|

e|-22-24-22-20-19-22-20-19-17-20-19-15-19-17-15-14-17-15-14-|
B|----------------------------------------------------------|
G|----------------------------------------------------------|
D|----------------------------------------------------------|
A|----------------------------------------------------------|
E|----------------------------------------------------------|

e|-12-15-14-12-10-14-12-10-8-12-10-8-----0-----0-----0---|
B|-----------------------------------2/8---2/8---2/8-----|
G|-----------------------------------------------------2b|
D|-------------------------------------------------------|
A|-------------------------------------------------------|
E|-------------------------------------------------------|

e|-pt19[15-14-12-14-15-14]-pt20[15-14-12-14-15-14]-|
B|-------------------------------------------------|
G|-------------------------------------------------|
D|-------------------------------------------------|
A|-------------------------------------------------|
E|-------------------------------------------------|

e|-pt20[17-15-14-15-17-15]-pt20[17]-18b-|
B|--------------------------------------|
G|--------------------------------------|
D|--------------------------------------|
A|--------------------------------------|
E|--------------------------------------|

e|-12b-12b-12b-12b-12b-12b-----12b-12b-12b-12b-12b-12b-|
B|-15b-15b-15b-15b-15b-15b-15b-15b-15b-15b-15b-15b-15b-|
G|-------------------------14b-14b-14b-14b-14b-14b-14b-|
D|-----------------------------------------------------|
A|-----------------------------------------------------|
E|-----------------------------------------------------|

e|-------------------------------12----------------------------|
B|-15b-----12-15----12-----12-14----12-15----------------------|
G|-----14b-------14----15b----------------15-14-12-------14-12-|
D|-------------------------------------------------14-12-------|
A|-------------------------------------------------------------|
E|-------------------------------------------------------------|


That was all I bothered to do... 

Will do the rest upon enough requests only!

************************************

| /   slide up
| \   slide down
| h   hammer-on
| p   pull-off
| ~   vibrato
| +   harmonic
| x   Mute note
| b   Bend
| pb  Pre-bend
| br  Bend release
| pbr Pre-bend release
| brb Bend release bend
| pt  Pick Tapping
************************************

Kommentarer:

Dette feltet skal ikke fylles ut:
Lagre i egne samlinger
Vurderinger