En sang om fly

av gruxx 04/10-2014
Moddi - En sang om fly

TUNING: CADGBE


Alle akkorder i forhold til Capo

Sangen er fingerspilt, hovedsakelig 2 akkorder. 
Jeg legger på akkorder og basslinja så får du 
finne fingerspill og slikt selv.


C:  0-3-2-0-1-0
F*: 1-3-0-2-0-0


Intro (basslinja. Spilles med C-akkord)
e------------------------------------------
B------------------------------------------
G------------------------------------------
D------------------------------------------
A---3-3--2-------0-0-----------------------
E-----------3---------3-0------------------

F* (basslinja, går over til Intro-basslinja)
e------------------------------------------
B------------------------------------------
G------------------------------------------
D------------------------------------------
A--------------3-3-------------------------
E--1-1-1-1-3-3-----------------------------


          C                     C
Eg vil se verden, sånn som alle ainner:
       F*                          C 
heller gjere nån feil enn å leve i anger
         C                        C
og om eg klare å bære kvileslaust fare
             F*                                  C
så kan eg ha én fot i nuet og én i alt det samme gamle

F*                                               C
og ta ett skrett telbakers førr kvert ett eg går fram


eg vil leve som dem gjær det på teve
der kor alt e et spell, men der alle i det minste ser det
og når hemmelen gjer oss snystorm i juli
så kan eg sei eg gjor det einaste man kunne den gång alt va mulig

F*                                        F*            C
då vi tok ett skrett telbakers førr kvert framskrett vi gjor
då vi tok ett skrett telbakers førr kvert framskrett vi gjor
F*                                           C
å ta ett skrett telbakers, ett skrett nærmar no


ett skrett telbakers, ett skrett nærmar no
ett skrett telbakers, ett skrett nærmar no
ett skrett telbakers, ett skrett nærmar jorda
ett skrett telbakers, ett skrett nærmar no
ett skrett telbakers, ett skrett nærmar jorda
ett skrett telbakers, ett skrett nærmar no
ett skrett telbakers, ett skrett nærmar no

PS: Pål, nå får du snart begynne å poste tabs'ene dine sjøl!

Kommentarer:

Dette feltet skal ikke fylles ut:
  • B (Gjest)
    Glimrende! Takk
    Om du kan gjøre et forsøk på Stuck in the Walts hadde jeg satt stor pris på det. og så med tab på hvordan fingerspillet er.
  • :) (Gjest)
    gjerne mer av moddi
  • gruxx
    si ifra om du vil ha mer
  • Arnold (Gjest)
    Yessss!
Lagre i egne samlinger
Vurderinger