Vem kan segla

av October 06/11-2014
                                Hvem Kan Seile                                  
                                                  
     Dm                                                                   
E||--------1-----------1-----|--------1-----------1-----|
B||------3---3-------3---3---|------3---3-------3---3---|
G||----2-------2---2-------2-|----2-------2---2-------2-|
D||--0-----------0-----------|--0-----------0-----------|
A||--------------------------|--------------------------|
E||--------------------------|--------------------------|

    Dm                                                   
|----------1-----------1-----|--------1-----------1-----|
|--------3---3-------3---3---|------3---3-------3---3---|
|*-----2-------2---2-------2-|----2-------2---2-------2-|
|*--0------------0-----------|--0-----------0-----------|
|----------------------------|--------------------------|
|----------------------------|--------------------------|

  Gm7           C7              F7           F#dim             
----------1-----------0-----|---------1-----------5-----|
--------3---3-------1---1---|-------1---1-------4---4---|
------3-------3---3-------3-|-----2-------2---5-------5-|
----------------------------|---------------4-----------|
----------------3-----------|---------------------------|
--3-------------------------|--1------------------------|

  Gm           Gm/E              Dm           Bb7             
---------3------------3-----|---------1-----------1-----|
-------3---3--------3---3---|-------3---3-------3---3---|
-----3-------3----3-------3-|-----2-------2---1-------1-|
----------------------------|--0------------------------|
----------------------------|---------------1-----------|
--3------------0------------|---------------------------|

  Gm                          Dm                          
---------3-----------3-----|---------1-----------1------||
-------3---3-------2---2---|-------3---3-------3---3----||
-----3-------3---2-------2-|-----2-------2---2-------2-*||
---------------------------|--0------------0-----------*||
---------------0-----------|----------------------------||
--3------------------------|----------------------------||

Dette er samme versjon som i GuitarPro-fila.

Andre versjoner:

Kommentarer:

Dette feltet skal ikke fylles ut:
Lagre i egne samlinger
Vurderinger