Forelska I Lærer'n

av Ukjent 24/02-2007
Forelska i Lærærn
- The Kids

   Tabs-seksjon
            
            
            
                åpning:
   E              A  E              A
E|-------------------------------------|
H|-------------------------------------|
G|----------------2-----------------2--|
D|-2--2-2--2--2-2-2--2--2-2--2--2-2-2--|
A|-2--2-2--2--2-2-0--2--2-2--2--2-2-0--|
E|-0--0-0--0--0-0----0--0-0--0--0-0----|
            vers: Hun sitter foran meg......

rfrg: Hun er forelska...

vers: Lærer'n vår er 20 år...

rfrg: Hun er forelska .... (2 ganger)
                gitarsolo 1.stemme:
   C#m                   A                          F#m
E|-----------------------------------------------------|
H|-----------------------------------------------------|
G|---------------4-6-6b8r6------------------4-6-6b8r6--|
D|-----------4-6------------------------4-6------------|
A|-4-4-4-6-7------------------4-4-4-6-7----------------|
E|-----------------------------------------------------|
 |                                                     |
 |  gitarsolo 2.stemme:                                |
 |                                                     |
E|-----------------------------------------------------|
H|---------------4-5-5b7r5------------------4-5-5b7r5--|
G|-----------4-6------------------------4-6------------|
D|-------4-6------------------------4-6----------------|
A|-7-7-7----------------------7-7-7--------------------|
E|-----------------------------------------------------|
                gitarsolo 1.stemme:
                         E
E|----------------------------12p9--12p9---------------|
H|-----------------5-5b7r5----------------12p9-12p9----|
G|---------------4-------------------------------------|
D|-----------4-6---------------------------------------|
A|-4-4-4-6-7-------------------------------------------|
E|-----------------------------------------------------|
 |                                                     |
 |  gitarsolo 2.stemme:                                |
 |                                                     |
E|----------------------------16p12-16p12-12p9-12p9----|
H|---------------4-9-9b10r9----------------------------|
G|-----------4-6---------------------------------------|
D|-------4-6-------------------------------------------|
A|-7-7-7-----------------------------------------------|
E|-----------------------------------------------------|
                gitarsolo 1.stemme:
                                     C#m
E|-----------------------------------------------------|
H|-----------------------------------------------------|
G|-11p9 11p9--------------------------------6-6-6------|
D|-----------11p9-11p9---------------------------------|
A|---------------------11p9-11p9-9p7-9p7-4--------4----|
E|-----------------------------------------------------|
 |                                                     |
 |  gitarsolo 2.stemme:                                |
 |                                                     |
E|-----------------------------------------------------|
H|-12p9-12p9--------------------------------5-5-5------|
G|-----------11p9-11p9---------------------------------|
D|---------------------11p9-11p9-9p6-9p6---------------|
A|---------------------------------------7--------7----|
E|-----------------------------------------------------|
                gitarsolo 1.stemme:
                         A                                 F#m
E|------------------------------------------------------------|
H|------------------------------------------------------------|
G|---------------4-6-6b8r6--6-6-6------------------4-6-6b8r6--|
D|-----------4-6-------------------------------4-6------------|
A|-4-4-4-6-7----------------------4--4-4-4-6-7----------------|
E|------------------------------------------------------------|
 |                                                            |
 |  gitarsolo 2.stemme:                                       | 
 |                                                            |
E|------------------------------------------------------------|
H|---------------4-5-5b7r5--5-5-5------------------4-5-5b7r5--|
G|-----------4-6-------------------------------4-6------------|
D|-------4-6-------------------------------4-6----------------|
A|-7-7-7--------------------------7--7-7-7--------------------|
E|------------------------------------------------------------|
                gitarsolo 1.stemme:
                                  E
E|------------------------------------|
H|--------------------------5-5b7r5---|
G|-6-6-6------------------4-----------|
D|--------------------4-6-------------|
A|-------4--4-4-4-6-7-----------------|
E|------------------------------------|
 |                                    |
 |  gitarsolo 2.stemme:               |
 |                                    |
E|------------------------------------|
H|-5-5-5------------------4-9-9b10r9--|
G|--------------------4-6-------------|
D|----------------4-6-----------------|
A|-------7--7-7-7---------------------|
E|------------------------------------|
            rfrg:  Hun er forelska...osv.. med samme gitarsolo til fade...




*********************************************
* Denne filen er forfatterens egen tolkning *
* av sangen, skrevet ned kun etter øret.    *
* Den er kun beregnet til privat bruk.      *
*********************************************

Andre versjoner:

Kommentarer:

Dette feltet skal ikke fylles ut:
  • karl (Gjest)
    veldig bra! dette hjalp meg veldig
  • nbklsgrs (Gjest)
    dårlig
  • Anonym <3 (Gjest)
    cool
  • Øystein (Gjest)
    "B" står for "bend" og "r" står for "release".
  • Per (Gjest)
    Bra tablatur! Hva betyr r og b ? i solopartiene?
Lagre i egne samlinger
Vurderinger