Gi meg Jesus

av zorro 01/09-2015
--------------------------------------------
Gi meg Jesus
T&M: David André Østby, Stig-Øyvind Blystad
--------------------------------------------

Intro (melodi):
  (G)                          (D)
E |----------------------------|----------------------------|
H |-------12-12-------12-12----|-------12-12-------15-15----|
G |-12h14-------12h14-------12-|-12h14-------12h14-------12-|
D |----------------------------|----------------------------|
A |----------------------------|----------------------------|
E |----------------------------|----------------------------|

  (Am)                         (C)
E |----------------------------|----------------------------|
H |-------12-12-------12-12----|-------12-12-------15-15----|
G |-12h14-------12h14-------12-|-12h14-------12h14-------12-|
D |----------------------------|----------------------------|
A |----------------------------|----------------------------|
E |----------------------------|----------------------------|

*h = hammer on

*************************************************************

Intro (melodi - alternativ spillemåte):
  (G)                 (D)
E |-------------------|-------------------|
H |-------------------|-------------------|
G |-----4-4-----4-4---|-----4-4-----7-7---|
D |-5h7-----5h7-----5-|-5h7-----5h7-----5-|
A |-------------------|-------------------|
E |-------------------|-------------------|

  (Am)                (C)
E |-------------------|-------------------|
H |-------------------|-------------------|
G |-----4-4-----4-4---|-----4-4-----7-7---|
D |-5h7-----5h7-----5-|-5h7-----5h7-----5-|
A |-------------------|-------------------|
E |-------------------|-------------------|

*h = hammer on

*************************************************************


INTRO (akkorder):
| G - - - | D - - - | Am - - - | C - - - |  (x2)

VERS 1:
G
Hvem kan lyse opp min sti
       Am              Em
Som en lykt for min fot
Gjøre natten om til dag
                  D
Og gi meg nytt mot


VERS 2:
G
Hvem kan true vær og vind
   Am               Em
Og stille hver storm
Vandre støtt på opprørt hav
             D
Og gripe min hånd
          C
Gripe min hånd


REFRENG:
       G           D
Gi meg Jesus, bare Jesus
    Am
En uendelig kjærlighet
 C               D
Ufattelig dyp og bred
       Em     G    D
Gi meg Jesus, bare Jesus
      Am       G/H     D    G
Ingen andre er lik deg Je - sus


VERS 3:
G
Hvem har villig gitt sitt liv
      Am           Em
For å dø på et kors
Hvem har gitt meg ny verdi
                D
Ved å elske meg først
          C
Elske meg først


REFRENG


MELLOMSPILL:
| Em - - - | G - - - | Hm - - - | D - - - |  (x2)


BRIDGE:
Em
Du ga meg alt
D/F#    G
All min skyld er betalt
Am   Em                  D
Mine synder ble båret av deg
Em
Ord blir for små
D/F#     G
Hvem kan fullt ut forstå
Am      Em                D
Hvilken godhet du øste på meg


REFRENG x2
(Første gang: ikke syng siste setning ("Ingen andre er lik…"), men gå rett på nytt refreng.)

Kommentarer:

Dette feltet skal ikke fylles ut:
  • .......... (Gjest)
    Veldig bra sang
  • Promp nå (Gjest)
    fin sang
  • Nancy Nilsen (Gjest)
    Herlig sang. Herlig lovsang til Jesus. Tusen takk. :-)
  • ???? (Gjest)
    Fungerer bra på el piano
  • Gjest
    Fin sang????
  • Nils Rune Landa (Gjest)
    Takk for denne sangen.
  • Se alle kommentarer
Lagre i egne samlinger
Vurderinger