Idas sommervise

av jonathandb 17/10-2015
Capo 2.Bånd


     C                       Dm                   G             
E|------------------------0--1-----0------------------------------------
B|---1-----1--1--1-----3-----------------3-----1--0-----0--0--0-----1h3-
G|0-----0-----------0-----------2-----2-----2--------0-----------0------
D|---------------------------0-----------0------------------------------
A|---3-----------3------------------------------------------------------
E|------------------------------------------------3-----------3---------

    C                        
E|-------------------------------------
B|--1-----------1-------1-----1--1--1--
G|-----0-----0-------0-----0-----------
D|--------2----------------------------
A|--3-------------------3-----------3--
E|-------------------------------------

             Dm                   G                      C
E|--------0--1-----0----------------------------------------------------
B|-----3-----------------3-----1--0-----0--0--0-----1h3--1-----------1--
G|--0-----------2-----2-----2--------0-----------0----------0-----0-----
D|-----------0-----------0-------------------------------------2--------
A|-------------------------------------------------------3--------------
E|--------------------------------3-----------3-------------------------

       C                       Dm                G 
E|--0--3-----0--0--3-----0--3--1-----3-----5--1--------------------
B|--------1-----------1-----------3-----3--3-----3-----3--3--3-----
G|--------------------------------------------------0-----------0--
D|-----------------------------0-----------0-----------------------
A|-----3-----------3-----------------------------------------------
E|-----------------------------------------------3-----------3-----

          E                   Am
E|--3--1--0-----------0----------------------
B|-----------0-----0-------3--1-----1--1--1--
G|--------------1----------------2-----------
D|-------------------------------------------
A|----------------------------0-----------0--
E|--------0----------------------------------

             Dm          *         G                      C
E|--------0--1-----0----------------------------------------------------
B|-----3-----------------3-----1--0-----0--0--0-----1h3--1-----------1--
G|--2-----------2-----2-----2--------0-----------0----------0-----0-----
D|-----------0-----------2-------------------------------------2--------
A|-------------------------------------------------------3--------------
E|--------------------------------3-----------3-------------------------


* - Obs! B i bass

Andre versjoner:

Kommentarer:

Dette feltet skal ikke fylles ut:
Lagre i egne samlinger
Vurderinger