Reodors ballade

av Planke 06/08-2016
Vil du spille sammen med "noen", spill sammen med denne:
https://www.youtube.com/watch?v=eFhyev9G_Pg


   Am  E     F G C     Am    Dm    Am    E
E|-0-5-7-8-7-5-3-0-----0-1-0-------0---------|
B|-----------------1-3-------3-1-3---3-1-0---|
G|-------------------------------------------|
D|-------------------------------------------|
A|-------------------------------------------|
E|-------------------------------------------|


   Am  E     F G C     Am    E     Am  F       Am        Bb        Am
E|-0-5-7-8-7-5-3-0-----0-----------------5-3-1-0-----------0-1-0-----|
B|-----------------1-3---3-1-0-------------------1---0-1-3-------3-1-|
G|-----------------------------2-1-2---2-----------2-----------------|
D|-------------------------------------------------------------------|
A|-------------------------------------------------------------------|
E|-------------------------------------------------------------------|


   F       Am        Bb        E
E|---5-3-1-0-----------0-1-0---0--------|
B|-----------1---0-1-3-------3----------|
G|-2-----------2------------------------|
D|--------------------------------------|
A|--------------------------------------|
E|--------------------------------------|


   Am  E     F G  C     Am    Dm    Am    E
E|-0-5-7-8-7-5-3-0-----0-1-0-------0---------|
B|-----------------1-3-------3-1-3---3-1-0---|
G|-------------------------------------------|
D|-------------------------------------------|
A|-------------------------------------------|
E|-------------------------------------------|


   Am  E     F G C     Am    E     Am
E|-0-5-7-8-7-5-3-0-----0------------------------------------------------|
B|-----------------1-3---3-1-0------------------------------------------|
G|-----------------------------2-1-2-(hold litt og dra opp til 10.bånd)-|
D|----------------------------------------------------------------------|
A|----------------------------------------------------------------------|
E|----------------------------------------------------------------------|



E|-10-10-8-6-5-1---0-1-3-5-6-5-3-1--|
B|---------------3------------------|
G|----------------------------------|
D|----------------------------------|
A|----------------------------------|
E|----------------------------------|



E|---10-8-6-5-1---0-1-3-5-6-5-3-5--|
B|-3------------3------------------|
G|---------------------------------|
D|---------------------------------|
A|---------------------------------|
E|---------------------------------|


E|-5-10-12-13-12-10-8-5-1-3-5-6-5-3-1-3-5-3-1-0-|
B|----------------------------------------------|
G|----------------------------------------------|
D|----------------------------------------------|
A|----------------------------------------------|
E|----------------------------------------------|


E|-5-10-12-13-12-10-8-5-1-3-5-3-1-0------|
B|----------------------------------3-2-3|
G|---------------------------------------|
D|---------------------------------------|
A|---------------------------------------|
E|---------------------------------------|

Andre versjoner:

Kommentarer:

Dette feltet skal ikke fylles ut:
  • Andreas (Gjest)
    Fin tab av nydelig melodi!

    Legg inn en G slik så får den et lite løft:

    Am E F. G. C.
Lagre i egne samlinger
Vurderinger