Diesel og dongeri

av olav96s 28/02-2017
Intro komp:

E - A - H | E maj7 - A - H | X2

Intro lead:

E| |----------------------------------        ---------------------------------------------
H| |-------/12------------9-10-9------        -----/12------------9-12-9-------------------
G| |------------/9---9-11--------11-9-   X2   ----------/9---9-11--------11-9--8-9--6-8--4-
D| |----------------------------------        ---------------------------------------------
A| |----------------------------------        ---------------------------------------------
E| |----------------------------------        ---------------------------------------------

               E        A         H
Æ vil vårrå luft som smake som vin
        E      A       H
En sekker gevinst som e din
           E      A         H
Æ vil vårrå den du stør dæ på
         F#m           H
Og som alltid vet ei rå’

           E       A          H
Æ vil vårrå verdens beste sønn
             E         A         H
Han som stille opp helt utan lønn
           E       A             H
Æ vil vårrå den som gjær dem glad
        F#m            H
Og som e det dem vil ha



E| |--------------------------
H| |------5-4-----------------
G| |----------6-4-------------
D| |--------------7-6-4-2-----
A| |--------------------------
E| |--------------------------


        A                      H
Æ har diesel og dongeri og et eget refreng
  E                           A
En gammel kompis som har verri hen leng
A
Æ har Converse men ikke kred,
A
Æ har Fønhus i hylla
A                           H
Det e drømmen som har skylda



Æ vil vårrå din aller beste venn

Han du kjæm te igjen og igjen

Når de gode tider har gjømt sæ

Har du en som e der for dæ



E| |----pb(16)14-12----------------------------------- 
H| |----------------14-12-------------------------12--
G| |----------------------13/11-9-----------11-13-----
D| |------------------------------11-9-/14------------
A| |--------------------------------------------------
E| |--------------------------------------------------



Æ vil vårrå din favoritt av en far

Han som vet alt å har svar

Æ vil hjølp te alt æ kan

Og alltid rekk ut ei hand



Æ har diesel og dongeri og et eget refreng

Et gammelt band som har verri hen leng

Æ har Converse men ikke kred,

Har Fønhus i hylla

Det e drømmen som har skylda

Kommentarer:

Dette feltet skal ikke fylles ut:
Lagre i egne samlinger