Flåklypa

av Drammensergitaristen 04/04-2017
Capo på 5 bånd


---0-2--3-2-0--------------------------------
0-------------3-0------0-1-0-------0---------
-------------------0-2-------2-0-2---2-0-----
--------------0--------------------------4---
-----2------3----------------0-----2-----2---
0---------------3------3---------------------



---0-2--3-2-0--------------------------------
0-------------3-0------0---------------------
-------------------0-2---2-0-----------------
--------------0--------------4--2-1-2--------
-----2------3----------------2--2-2-2--------
0---------------3------3--------------0------



--0------------------------------------------
-----3-1--0---------------0-1-0--------------
-------------0-------0-2---------3-0---------
----------------2--2-----------------2-------
--3-------2------------0------2--------------
----------------0------------------0---------



--0------------------------------------------
-----3-1--0---------------0-1-0----0---------
-------------0-------0-2---------3-----------
----------------2--2-------------------------
--3-------2------------0------2--------------
----------------0----------------------------

Denne versjonen er skrevet av meg personlig ;)Håper mange tar den i nytte!

Andre versjoner:

Kommentarer:

Dette feltet skal ikke fylles ut:
Lagre i egne samlinger
Vurderinger