Suser Avgårde Alle Mann

av Ukjent 24/02-2007
Suser avgårde alle mann
Tekst & Musikk: Lars Lillo Stenberg

D.     G.    D.      A.      Hm    G.   Hm.   A.
Det er grålysning og ikke en lyd i byen
D.     G.        D.   A.       Hm.      G.   Hm.   A.
Og jeg er på vei hjem til en uoppredd seng
D.G.    A...    D.     G.      A...
Lille  Oslo     er en egen planet
Em7...     D/F#          Hm.../...
Alle gatene forskjellige land 
Em7...     A...      D.
Hvert strøk en verdensdel
       G.      A...        D.../...   Hm.../...
Og vi suser avgårde alle mann

Og jeg er ganske full og jeg går midt i Bygdøy alle
Og mitt eneste mål er å komme hjem og sove
Men før jeg gjør det  er jeg nødt til å se 
At solen kommer at mennesker står opp
Da er jeg trygg da kan jeg sove godt hele
dagen

     Hm...           Hmmaj/B   Hm7/A...E9/G#...
Men kanskje blir jeg vekket av en  flyalarm
Hm                  Hmmaj/B        Hm7/A             E9/G#  
Selv om det bare  er  en  test  så gjør den meg helt kvalm
D.           G.       A.
Løper opp og skrur på radioen hver
  D.../... Hm.../...  D.../...   Hm.../...
gang (dududu dudu dududu du dudu)

Det er grålysning og ikke en lyd i byen
Og jeg er på vei hjem til en uoppredd seng
Lille Oslo  er en egen planet
Alle gatene forskjellige land 
Hvert strøk en verdensdel
Og vi suser avgårde alle mann
D.G.      A... D.   G.        Asus4.  A.           D
  Suser avgårde     suser avgårde      alle mann

*********************************************
* Denne filen er forfatterens egen tolkning *
* av sangen, skrevet ned kun etter øret.    *
* Den er kun beregnet til privat bruk.      *
*********************************************

Andre versjoner:

Kommentarer:

Dette feltet skal ikke fylles ut:
  • Christer (Gjest)
    Introen er vel noe sånn ca.:


    e-------------------------------------------------
    B-------------------------------------------------
    G-2----2----2----4p2----2----0-0h2p0------------
    D---0----0----0-------0----0------------4---------
    A-------------------------------------------------
    E-------------------------------------------------


    e-------------------------------------------------
    B-------------------------------------------------
    G--------------------------------------------
    D-----4----4-------5p4----4-----2--2h4p2--0---------
    A---2----2----2--------2-----2----0-------------------
    E-------------------------------------------------
  • Tom73
    Hei,
    Er det noen som kan dette riffet Lars Lillo Stenberg spiller på originalinnspillingen?
    Kunne noen gitt ut en TAB på det?
    På forhånd tusen takk!
Lagre i egne samlinger
Vurderinger