Sin egen stil

av kaste94 29/01-2019
Western Swingers - Sin egen stil (Tekst og melodi: Arne Løland) (1983)

Tabs til gitarsolo, spilt av Arly Karlsen?



         E                            G#m                    A
e|-------------------------|-----------------------------|--------|
B|-------9--8--9--10--9----|--------12-------------------|-12/14--|
G|-----------------------9-|-11b13------13r11--11------9-|--------|
D|--7/9--------------------|-----------------------11----|--------|
A|-------------------------|-----------------------------|--------|
E|-------------------------|-----------------------------|--------|

          A                E                   H               E   
e|----------------|-------------------|--------------------|--------|
B|--12/14--12-----|-------------------|--------------------|--------|
G|-------------14-|-13----------11/13-|-11-----------------|--------|
D|----------------|-----14------------|-----13------11--13-|-13/14--|
A|----------------|---------14--------|---------14---------|--------|
E|----------------|-------------------|--------------------|--------|

Andre versjoner:

Kommentarer:

Dette feltet skal ikke fylles ut:
Lagre i egne samlinger
Vurderinger