Intro:

E------------------0-0-0-x-x-x-x------0-----------------0-0-0-x-x-x-x------0-0-0-x-x-x-x-
B--5s3-1-3-1-------1-1-1-1-1-1-1------1--3b5b3p1--------1-1-1-1-1-1-1------1-1-1-1-1-1-1-
G------------2-0---0-0-0-2-2-2-2------0----------2p0----0-0-0-2-2-2-2------0-0-0-2-2-2-2-
D------------------2-2-2-3-3-3-3--x-x-2-----------------2-2-2-3-3-3-3--x-x-2-2-2-3-3-3-3-
A----------------3-3-3-3-3-3-3-3--x-x-3---------------3-3-3-3-3-3-3-3--x-x-3-3-3-3-3-3-3-
E------------------------x-x-x-x------------------------------x-x-x-x------------x-x-x-x-


1.Vers:

C
Ja eg så deg med deg sama
der du [F]satt ved hjørnet[C]bordet
[F]møtte meg med [C]snøgge auge[G]kast
        C
det var der det var ledig
så eg [F]sette meg ned ved [C]bordet ditt
men [F]eg burde [C]kansi [G]tenk meg o[C]m


Ref:
No [G]lær du med ditt [C]beste smil
dreg [F]fingan gjønnom [C]håret
[G]sjål om du bruka [C]agn og not, så [F]ska eg stå [G]imot
nei [C]brukji ener[F]gi, på [C]kjensle [F]tjuver[G]i
for [Am]døre t[C]e min h[F]ug e d[G]irkef[C]ri



Mellomspillet:
[F] [C] [F]
[Am] [C] [F] [G] [C]



2. vers:
C
Ja du kan alle knep og konsti
for å [F]få en mann i gåd[C]net
[F]med blåe a[C]uge, bitt du [G]meg
       C
å du prata mjukt og lågmælt
om sli[F]kt som eg kan [C]like
det [F]blir nok [C]ikkje l[G]ett å gløyme [C]deg


Ref:
No [G]lær du med ditt [C]beste smil
dreg [F]fingan gjønnom [C]håret
[G]sjål om du bruka [C]agn og not, så [F]ska eg stå [G]imot
nei [C]brukji ener[F]gi, på [C]kjensle [F]tjuver[G]i
for [Am]døre t[C]e min h[F]ug e d[G]irkef[C]ri



Mellomspill:

[C] [F] [C] [F] [G]
E--0---0-0-0---0--0---0---------------------3----
B--3s5-5-5-5s3-1--1h3-1---------------------3----
G-----------------------2-0----0------------0----
D---------------------------0h2-------------0----
A---------------------------------3-2b3b2---x----
E-----------------------------------------3-3----

[Am] [C] [F] [G] [C]


No [G]lær du med ditt [C]beste smil
dreg [F]fingan gjønnom [C]håret
[G]sjål om du bruka [C]agn og not, så [F]ska eg stå [G]imot
nei [C]brukji ener[F]gi, på [C]kjensle [F]tjuver[G]i
for [Am]døre t[C]e min h[F]ug e d[G]irkef[C]ri

nei [C]brukji ener[F]gi, på [C]kjensle [F]tjuver[G]i
for [Am]døre t[C]e min h[F]ug e d[G]irkef[C]ri

[F] [C] [F]
[Am] [C] [F] [G] [C]
[F] [C] [F] [C] [F] [C]

Andre versjoner:

Kommentarer:

Dette feltet skal ikke fylles ut:
Lagre i egne samlinger
Vurderinger