Swedish Television

av eivindoen 29/11-2019
Her er Min tolkning av Swedish Television av BigBang.
I denne versjonen spilles den med capo på 1. bånd og i G#-dur.
Nederst på siden har jeg tabet intro, 
nedgang (som kan brukes der dm er markert med *) og soloen.

Intro:
Am  Em  F  Dm                                  

Am     Em
Hello
             F                                                
Can anyone find me now?
                                                             
Well I don't think so
Am       Em                                                   
And man
                          F                                  
If you would really wanna hurt me you did it now
Am     Em                                                       
Oooohhh
            F                                Am  Em                 
I can take alot, but I just about had enough
    F                 Dm*                                       
You should see me now
                                                            
                                                            
Dm                     C                       G                
Tryin' to remember the warmth from her fathers hands
Dm      C      G     Dm*                                           
(aaahhh aaahhh ahhhh)                                                            
                      C   Am                   Dm*                
But now its all about you coming home from the track
                          C     Am           F                  
All she can't think of is you... not looking back
    Dm                     C                          G                              
The billboards of the moon align alot better then she thought they would
Dm                   C      C/B                                   
Now I know she can't take it anymore
 

Intro:                                                           
Am   Em   F   Dm*   
                                                           
Am  Em                       F                                   
Her feelings still grow here without you
Am          Em                              F                                        
But she can still feel your blows talking to herself now
Am              Em                                                                  
With your brown turtleneck sweather
        F                                                                        
Just to spite the world
       Dm                                                                         
Like a living room collision
   C                                 G                                            
On swedish television some time ago..
 Dm      C      G     Dm*                                           
(aaahhh aaahhh ahhhh)                                                                                       
                                                                                
                      C   Am                   Dm*                                    
But now its all about you coming home from the track
                        C    Am           F                                         
All she can think of is you.. not looking back
    Dm                     C                          G                             
The billboards of the moon align alot better then she thought They Would
Dm                   C      C/B                                   
Now I know she can't take it anymore
                                                                                
Solo:
Am Em F
Am Em F
Am Em F
Dm C G Dm*
       

                      C   Am                   Dm*                                    
But now its all about you coming home from the track
                        C    Am           F                                         
All she can think of is you.. not looking back  
    Dm                     C                          G                             
The billboards of the moon align alot better then she thought They Would
Dm                     C                   G                                        
Trying to remember the warmth of a fathers hand                                                                       

                                                      
                      C   Am                   Dm*                                    
But now its all about you coming home from the track
                        C    Am           F                                         
All she can think of is you.. not looking back                         
Dm                     C                   G                                        
Trying to remember the warmth of a fathers hand
Dm                   C      C/B    Am                               
Now I know she can't take it anymore




Intro:
  Am               Em         F         Dm
E-------------------------------------------1---0-------
B-------1p0-------------0-------------1----3-------3--1-
G------2-----2-----------0---------2------2-------------
D-0h2-2--------2------2----2-----3--3---0---------------
A----0-------------0h2-2--2-------3---------------------
E-----------------------------0h1----1------------------


Nedgang i Dm*:
 Dm
E----1---0-------
B---3-------3--1-
G--2-------------
D-0--------------
A----------------
E----------------


Solo:
  Am   Em    F                Am
E--0----------------1h3p1-0---------------
B--3s5--3-1---5--1----------0-------------
G-----------2-----2-----------2p0h2-------
D-----------------------------------------
A-----------------------------------------
E-----------------------------------------
    Em       F
E-----------------------------------------
B-----------------------------------------
G-----------------------------------------
D---2-2s3-2-------------------------------
A-----------5-3-2-2s3--1s2-2s3-5-5b6b5----
E-----------------------------------------
 Am        Em       F
E----5-7---8-7-5----------------5-5-7---8-
B---6-----------5---5-5-5h6----6---6-6s8--
G--7--------------------------7-----------
D-----------------------------------------
A-----------------------------------------
E-----------------------------------------
   Dm     C            G     Dm    C
E----5h7-7-8-7-5-------3-----1-----0------
B---6----6-6-x-6--------------------------
G--7-----------7--------------------------
D-----------------------------------------
A-----------------------------------------
E-----------------------------------------

Andre versjoner:

Kommentarer:

Dette feltet skal ikke fylles ut:
Lagre i egne samlinger
Vurderinger