Her kommer mine arme små

av Planke 14/12-2019
E   A   E    A   E

    E      A    H    E
Her kommer dine arme små
         A     H       E
Åå Jesus i din stall å gå
   A     H      F#m     E
Opplys enhver i sjel og sinn
  A     E     F#m H   E  
å finne veien til deg inn

         E       A     H     E
Men hvor skal vi gå vi arme små,
                A      H     E
med våre bønner det er tårer på.
       A       H        F#m     E
Vi har stått i regnet - stått i vind
       A     E     F#m H   E
Vi har lytta etter stemmen din

      E      A     H     E
Jesus du som aldri leder vill
                 A       H        E
vi har spurt oss hvordan det gikk til
      A     H       F#m    E
At om dagen var det lett å tru
       A      E       F#m  H   E
så kom natta, Jesus - hvor var du

       E       A          H    E
Vi som en gang sprang med sang imot
                 A         H     E
begravde hjertet i det som vi forlot
         A     H        F#m  E
Vi holdt høyre hånd mot himmelen
         A       E        F#m   H E
mens den venstre holdt så hardt i-gjen

       E         A         H   E
Vi ble reist fra gjørme på din dag
               A     H     E
Vi sugde nåden inn i fulle drag
        A      H      F#m   E  
Men når vi med håp så oss omkring
       A        E       F#m H E
sto vi fortsatt der med ingenting


Solo:
E|--------------------------7-9-9-7-5-----|
B|-5-7-9-9-10-10-9-7-5--5-9-----------9---|
G|----------------------------------------|
D|----------------------------------------|
A|----------------------------------------|
E|----------------------------------------|

E|---------5-5-----7---5------------------|
B|-9-7-5-5-----7-7---9---7--9-5-----5-----|
G|------------------------------6-8-------|
D|----------------------------------------|
A|----------------------------------------|
E|----------------------------------------|

       E       A    H        E
Så her står vi nå i flokk på rad
                A      H         E
med en sang det stiger frostrøyk av
      A       H      F#m    E
Og en bønn om himmel her på jord
     A        E       F#m H   E
i en natt som kjennes alt for stor


Outro:
E|--------------------------7-9-9-7-5-----|
B|-5-7-9-9-10-10-9-7-5--5-9-----------9---|
G|----------------------------------------|
D|----------------------------------------|
A|----------------------------------------|
E|----------------------------------------|

E|---------5-5-----7---5------------------|
B|-9-7-5-5-----7-7---9---7--9-5-----5-----|
G|------------------------------6-8-------|
D|----------------------------------------|
A|----------------------------------------|
E|----------------------------------------|

Kommentarer:

Dette feltet skal ikke fylles ut:
  • Fritz Schjølberg (Gjest)
    Dette ser veldig bra ut. Skal prøve det senere.
    Trygve Skoug stemmer vel ofte gitaren i ulike durer? Kjenner du noe til hvordan han gjør det?
Lagre i egne samlinger
Vurderinger