Kariusbaktus

av Ukjent 24/02-2007
KARIUS OG BAKTUS
-Thorbjørn Egner




Intro:

E |----------------|----------------||
H |----------------|--------9-------||
G |------6-8-------|------8-----8---||
D |-8--8-----6-8---|-8--8-----8-----||
A |----------------|----------------||
E |----------------|----------------||
       ^^^^^            ^^^^^
         (spilles arpeggio)
[A#m]
E |-------------------|--------------------|---------------------|-------|
H |-------------------|--------------------|---------------------|-------|
G |-------------------|---------8----------|---------8-10---10---|-------|
D |-8---11---8---11---|-8-10-11---8---11---|-8-10-11-------------|-8-----|
A |-------------------|--------------------|---------------------|-------|
E |-------------------|--------------------|---------------------|-------|



E |---------------------|-----------------------|
H |---------------------|-----------------------|
G |------10--------10---|-------10-12------10---|
D |-11-------11---------|-11-13------11---------|
A |---------------------|-----------------------|
E |---------------------|-----------------------|



E |-----------------------|--------|
H |-----------------------|--------|
G |-------10-12-13---13---|--------|
D |-11-13-----------------|-11-----|
A |-----------------------|--------|
E |-----------------------|--------|


[D#]
E |---------------------|------------------|-------------------------------|
H |---------------------|------------------|-------------------------------|
G |-10-10-10-10---------|-10-8-------------|-------------------------------|
D |-------------8---8---|------11-10-8-----|-8-8-8-8---------8-6-5---------|
A |---------------------|------------------|---------6---6---------8-6-----|
E |---------------------|------------------|-------------------------------|


[A#m]
E |-------------------|--------------------|---------------------|--------||
H |-------------------|--------------------|---------------------|-11-----||
G |-------------------|---------8----------|---------8-10---10---|--------||
D |-8---11---8---11---|-8-10-11---8---11---|-8-10-11-------------|--------||
A |-------------------|--------------------|---------------------|--------||
E |-------------------|--------------------|---------------------|--------||
                                                                    (tjo!)
(Flytt alt ett bånd ned, for å få den i Am)







Variasjon:


E |-----------------|-----------------|----------------|---------|
H |-----------------|-----------------|----------------|---------|
G |-----------------|-----------------|----------------|---------|
D |-----------------|-----------------|----------------|---------|
A |-----------------|-------6---------|------6-8---8---|---------|
E |-6---9---6---9---|-6-8-9---6---9---|-6-8-9----------|-6-------|



E |-----------------|---------------------|-----------------|---------|
H |-----------------|-11------------------|-----------------|---------|
G |-----------------|----10-10------------|-----------------|---------|
D |-8---------------|----------11-9-------|-----------------|---------|
A |---8-8---8-------|---------------------|-------6---------|-6-------|
E |-------9---------|---------------------|-6-8-9---9-8-6-9-|---------|







	Den "glade" visen:
	-----------------


	Hei hur[H]ra, hurra, hurra
	Vi to har det jammen [F#]bra
	Her i t[C#m]ennene [F#]til [H]Jens[G#m]
	er vi a[C#m]ldri sukkerle[F#]ns

	Søte ka[H]rameller små
	er det [E]beste vi kan [C#m]få
	Også de[H]t som[G#m] vi får [D#m]nå[E]
	Deilig [F#]loff med sirup p[H]å

	Tralla-[E]lalla-la[H]
	Tralla-[E]lalla-la[H]
	Tralla-[E]lalla-la[H]
[F#] [H]
	La-lala-la-la - tjo!



	Modulert til C:

[C] [C] [C] [G]
[Dm] [G] [C] [Am] [Dm] [G]

[C] [C] [F] [Dm]
[C] [Am] [Em] [F] [G] [C]

	F - C | F - C | F - C | G - C ||







Tannbørsten kommer (Hjelp, hjelp...):

E |-------------------------|-------------------------|
H |-------------------------|-------------------------|
G |-11-13-11-13-15-13-15-13-|-11-13-11-13-11-13-11-13-|
D |-------------------------|-------------------------|
A |-11-13-11-13-15-13-15-13-|-11----13----9-----------|
E |-------------------------|-------------------------|
          ^^^^^       ^^^^^         ^^^^^       ^^^^^
        ("toer'n" og "firer'n" i hver takt spilles dempet.)

E |-------------------------|-------------------------|
H |-------------------------|-------------------------|
G |-11-13-11-13-15-13-15-13-|-11-13-11-13-11-13-11-13-|
D |-------------------------|-------------------------|
A |-11-13-11-13-15-13-15-13-|-11----13----9-----------|
E |-------------------------|-------------------------|
          ^^^^^       ^^^^^         ^^^^^       ^^^^^

E |-----------------|-----------------|---------------------|-------||
H |-----------------|-----------------|---------------------|-------||
G |-7-9-7-9-4-6-4-6-|-7-9-7-9-4-6-4-6-|-7-9-7-9-11-13-11-13-|-15----||
D |-----------------|-----------------|---------------------|-------||
A |-7-9-7-9-4-6-4-6-|-7-9-7-9-4-6-4-6-|-7-9-7-9-11-13-11-13-|-15----||
E |-----------------|-----------------|---------------------|-------||
        ^^^     ^^^       ^^^     ^^^       ^^^       ^^^^^

(Dette er en duett for oboe (alt) og fløyte (sopran),
 så den er litt ekkel å spille på én gitar.)







	Den "triste" visen:
	------------------


	Alt som[F#m] var av søtt og godt
	Det er borte stort o[Hm]g smått
	Alt har[Hm7] børsten[E7/H] feiet b[Amaj7]ort[D]

	Det var[Hm] veldig dårlig g[C#7]jort

	Her er [F#m]ikke noe nå
	Ingen karameller [Hm]små

[Hm7]	Ingen[E7/H] loff med[Amaj7] sirup[D] på
	Å, hvor[C#7]dan skal dette gå[F#m]

[Hm] [C#] [F#m]



	Modulert til Am:

	Am | Am - Dm | Dm7 - G7/D - Cmaj7 - F | Dm - E7 ||
	Am | Am - Dm | Dm7 - G7/D - Cmaj7 - F | E7 - Am ||
[Dm] [E] [Am]




[F#m] [Hm]
E |-2-------2-------|-2---------------|
H |---2---2---2---2-|---6-5-4-3-------|
G |-----2-------2---|-------------4-6-|
D |-4-------4-------|-4---------4-----|
A |-----------------|---------2-------|
E |-----------------|-----------------|


[Hm7] [E7/H] [Amaj7] [D] [Hm] [C#7]
E |-5---------4---------|-------------------||
H |-3----3----2----2----|-3-2-3-4-----------||
G |-4----4----2----2----|-----------5-4-----||
D |------6---------4----|---------------3---||
A |---------------------|---0-2-4-5---4-----||
E |---------------------|-4-----------------||


[F#m] [Hm]
E |-2-------2-------|-2---------------|
H |---2---2---2---2-|---6-5-4-3-------|
G |-----2-------2---|-------------4-6-|
D |-4-------4-------|-4---------4-----|
A |-----------------|---------2-------|
E |-----------------|-----------------|


[Hm7] [E7/H] [Amaj7] [D] [C#7] [F#m]
E |---------------------|-------------------||
H |-10---7-6--9---------|-7----10---0-------||
G |--------------9--8---|---7---------1-2---||
D |-7----6--------------|-6-------9---------||
A |-----------10----9---|-------------------||
E |---------------------|------9----2-2-2---||
                               rit.

[Hm] [C#] [F#m]
E |---------2---2---2-------||
H |---3-2-6-3---0-----------||
G |-----------------2-------||
D |-4-----------------------||
A |-5-2-0-------------------||
E |-------4-2---2---2-------||
    á tempo rit.





Variasjon, trist-tema:

E |---------|---------|-5-4---4-5---4---|-----0-------||
H |---------|---------|-7---7---6-------|-2-----3-2---||
G |---------|---6-6---|-8-5-8-5-8-7-6---|---4-2---2---||
D |-7-6---6-|-7-------|-----------------|-4-------4---||
A |-----9---|---------|-----------------|-------------||
E |---------|---------|-----------------|-------------||
                                          rit.




Mye av dette er rimelig vanskelig/sært på gitar & jeg er slett ikke sikker
på riktig alt, spesielt variasjonen på det triste temaet.
Er det flere temaer i Karius & baktus?
Jeg har den på mp3, og der er ikke slutten med (like etter at borret kommer).

Kom gjerne med forslag, rettelser etc.

An unemployed production by
Magnus Bruheim
rosenborg(a)football.com
www.heimert.org






*********************************************
* Denne filen er forfatterens egen tolkning *
* av sangen, skrevet ned kun etter øret.    *
* Den er kun beregnet til privat bruk.      *
*********************************************

Kommentarer:

Dette feltet skal ikke fylles ut:
  • moilasjo (Gjest)
    ¥
  • Gjest
    Hva skjer med spesiferte grep, holder det ikke med vanlige, og tabben var litt feil tror jeg
  • popelus
    veldig mye!
Lagre i egne samlinger
Vurderinger