Whispering Heart

av AnimalChiko 15/03-2020
Whispering Heart - Morten Harket

Dette er en sang fra Morten sitt soloalbum "Brother" fra 2014. Låta er skrevet av
Morten Harket, Ole Sverre Olsen og Peter Kvint. Jeg har skrevet en veldig simpel tablatur
som kan spilles der pianoet kommer inn på introen og rett før det siste refrenget.

Underveis i låta kan du variere på hvordan du spiller de ulike grepene. For eksempel så vil
det være best å spille "F#m" med barring på det andre båndet under Versene, mens det vil være
mest hensiktsmessig å spille grepet med barring på det åttende båndet under Før-Refrengene.
Det samme vil være gjeldende for "Em". På versene spiller du grepet helt åpent uten å barre,
men på Før-Refrenget vil det være best å barre på det syvende båndet. Dette gjør også at
låta blir litt mer "spennende" når du spiller den.

Vær så snill å ta kontakt med meg dersom du skulle lure på noe!

Grep involvert:

[F#m] [F#m] [C#m] [B] [E] [F] [Am] [D] [Dsus] [Em]
e|-2-|   e|-8--|   e|-4-|   e|-2-|   e|-0-|   e|-1-|   e|-5-|   e|-5-|   e|-5-|   e|-0-|
b|-2-|   b|-10-|   b|-5-|   b|-4-|   b|-0-|   b|-1-|   b|-5-|   b|-7-|   b|-8-|   b|-0-|
g|-2-|   g|-10-|   g|-6-|   g|-4-|   g|-1-|   g|-2-|   g|-5-|   g|-7-|   g|-7-|   g|-0-|
d|-4-|   d|-10-|   d|-6-|   d|-4-|   d|-2-|   d|-3-|   d|-7-|   d|-7-|   d|-7-|   d|-2-|
a|-4-|   a|-8--|   a|-4-|   a|-2-|   a|-2-|   a|-3-|   a|-7-|   a|-5-|   a|-5-|   a|-2-|
E|-2-|   E|----|   E|---|   E|---|   E|---|   E|-1-|   E|-5-|   E|---|   E|---|   E|-0-|

[Em] [G]
e|-7-|   e|-3-|
b|-8-|   b|-3-|
g|-9-|   g|-4-|
d|-9-|   d|-5-|
a|-7-|   a|-5-|
E|---|   E|-3-|



Intro:

[F#m] [E]
e|------------------------------------------------------------------|
b|----2-----2-2-----------------------0-----0-0---------------------|
g|----2-----2-2-----------------------1-----1-1---------------------|
d|--4---4----------4---4---4---4----2---2----------2---2---2---2----|
a|------------------------------------------------------------------|
E|-2-----2-------2---2---2---2----0-------0------0---0---0---0------|


Vers 1:
F#m
Take your shoes off
Drop the [C#m]sand on the [B]street
F#m
And touch me baby
        C#m
Make it real
        B
Make it real
F#m
Go and show a spinning world
[E]Naturals don't [B]learn


Vers 2:
F#m
Take you shoes off
Drop the [C#m]sand on the [B]street
            F#m
I have been waiting for you
There's this [C#m]place where we can [B]meet
F#m
You are in the world baby
[E]Don't forget to [B]burn


Før-Refreng:
[D]Going [Am]high
      Em
Going under
      F#m
Going in


Refreng:
[F]I see a [Am]new beginning
[C]See you [G]dancing in it
[D]Go, light a [Am]flame and let it [Em]burn to the [Dsus]end[D]
[F]I see a [Am]brighter limit
[C]See you [G]dance into it
[D]Whispering [Am]heart you are [Em]always the [Dsus]same[D][Dsus][D]


Vers 3:
F#m
Dream about it
Draw your [C#m]lines in the [B]sand
F#m
Sometimes the way things happen
We don't [C#m]need to under[B]stand
F#m
We are in the world baby
[E]You and I will [B]burn


Før-Refreng:
[D]Going [Am]high
      Em
Going under
      F#m
Going in


Refreng:
[F]I see a [Am]new beginning
[C]See you [G]dancing in it
[D]Go, light a [Am]flame and let it [Em]burn to the [Dsus]end[D]
[F]I see a [Am]brighter limit
[C]See you [G]dance into it
[D]Whispering [Am]heart you are [Em]always the [Dsus]same[D][Dsus][D]


Piano part:


[F#m] [E]
e|------------------------------------------------------------------|
b|----2-----2-2-----------------------0-----0-0---------------------|
g|----2-----2-2-----------------------1-----1-1---------------------|
d|--4---4----------4---4---4---4----2---2----------2---2---2---2----|
a|------------------------------------------------------------------|
E|-2-----2-------2---2---2---2----0-------0------0---0---0---0------|

                                                 Shine on the street


[F#m] [E]
e|------------------------------------------------------------------|
b|----2-----2-2-----------------------0-----0-0---------------------|
g|----2-----2-2-----------------------1-----1-1---------------------|
d|--4---4----------4---4---4---4----2---2----------2---2---2---2----|
a|------------------------------------------------------------------|
E|-2-----2-------2---2---2---2----0-------0------0---0---0---0------|
                                                     Make it real


[F#m] [E]
e|------------------------------------------------------------------|
b|----2-----2-2-----------------------0-----0-0---------------------|
g|----2-----2-2-----------------------1-----1-1---------------------|
d|--4---4----------4---4---4---4----2---2----------2---2---2---2----|
a|------------------------------------------------------------------|
E|-2-----2-------2---2---2---2----0-------0------0---0---0---0------|
        Ohhh-oh ohhh-oh                          Heee-eey


[F#m] [E]
e|------------------------------------------------------------------|
b|----2-----2-2-----------------------0-----0-0---------------------|
g|----2-----2-2-----------------------1-----1-1---------------------|
d|--4---4----------4---4---4---4----2---2----------2---2---2---2----|
a|------------------------------------------------------------------|
E|-2-----2-------2---2---2---2----0-------0------0---0---0---0------|


Refreng:
[F]I see a [Am]new beginning
[C]See you [G]dancing in it
[D]Go, light a [Am]flame and let it [Em]burn to the [Dsus]end[D]
[F]I see a [Am]brighter limit
[C]See you [G]dance into it
[D]Whispering [Am]heart you are [Em]always the [Dsus]same[D][Dsus][D][F#m]

Kommentarer:

Dette feltet skal ikke fylles ut:
Lagre i egne samlinger
Vurderinger