Slanted Floor

av AnimalChiko 21/03-2020
Slanted Floor - Morten Harket

Låta er fra Mortens soloalbum "Letter From Egypt" fra 2008. Den er skrevet av
Morten Harket og Ole Sverre Olsen. Sangen er ganske så rett fram, men det er bare å spørre
om det skulle være noe du lurer på!


Grep involvert:

  Cm:       G:        Ab:       Eb:       Bb:
e|-3-|    e|-3-|    e|-4-|    e|---|    e|-6-|
b|-4-|    b|-3-|    b|-4-|    b|-8-|    b|-6-|
g|-5-|    g|-4-|    g|-5-|    g|-8-|    g|-7-|
d|-5-|    d|-5-|    d|-6-|    d|-8-|    d|-8-|
a|-3-|    a|-5-|    a|-6-|    a|-6-|    a|-8-|
E|---|    E|-3-|    E|-4-|    e|---|    E|-6-|

Intro:
[Cm] [Ab] [Eb] [Bb] [Cm] [Ab] [Eb] [Bb]
e|-----------------------------------------------------|
b|-----------------------------------------------------|
g|-7-5---------------------7-7-5-----------------------|
d|------8-6---6-5---5-------------8-6---6-5----5-------|
a|----------------6--------------------------6---------|
E|-----------------------------------------------------|


Vers 1:
[Bb]Be my [G]eyes
[Cm]Paint colours [Ab]bright
As [Eb]day turns to [Bb]night
[Cm]Baby, be my [G]eyes


Vers 2:
G
Tell me, Dear
Was this [Cm]freedom left to [Ab]share
Was the [Eb]cost for all to [Bb]bare
Tell [Cm]me, tell me, [G]Dear


Før-refreng:
           Cm
'Cause out here
We [Ab]dance along the [Eb]rim
Though [Bb]non of us can [Cm]swim
Like we [Ab]know the deep we`re [Eb]in[Bb]


Refreng:
    Cm
And I,
I [Ab]feel like I felt [Eb]before
We [Bb]live on a slanted [Cm]floo[Ab]r[Eb][Bb]


Solo:
[Bb] [G] [Cm] [Ab] [Eb] [Bb] [Cm] [G]
e|------------------------------------------------------|
b|------------------------------------------------------|
g|------------------------------------------------------|
d|----5---------------------5-6-5---3--------3----------|
a|------(6)-5---5-6-8-6---8-----------5-5h6----6-5------|
E|--3---------------------------------------------------|


Før-refreng:
    Cm
And so
Tell me [Ab]all the things we [Eb]know
Is [Bb]heaven still [Cm]above[Ab][Eb][Bb]


Refreng:
    Cm
And I,
I [Ab]feel like I felt [Eb]before
We [Bb]live on a slanted [Cm]floo[Ab]r, fl[Eb]ooor[Bb]


Solo:
[Cm] [Ab] [Eb] [Bb] [Cm] [Ab] [Eb] [Bb]
e|------------------------------------------------------|
b|------------------------------------------------------|
g|--7-7-5---------------------7-7-5---------------------| x2
d|---------8-6---6-5---5-------------8-6---6-5----5-----|
a|-------------------6--------------------------6-------|
E|------------------------------------------------------|


Outro:

G (strum several times)

Kommentarer:

Dette feltet skal ikke fylles ut:
  • AnimalChiko
    Har laget grep/tab på mange andre Harket låter, så "you're in for a treat"!
  • Raymond (Gjest)
    Fantastisk låt dette, moro å spille! Håper på flere Harket låter (og Espen lind)
Lagre i egne samlinger
Vurderinger