Trondhjæmsnatt

av MartinRD96 04/04-2020
Intro: 
e|--0--1--3----0--1--3----8--7--5--1----------8--8--7-----0--1------------|
B|------------------------------------5--3-------------3--------0--1------|
G|------------------------------------------------------------------------|
D|------------------------------------------------------------------------|
A|------------------------------------------------------------------------|
E|------------------------------------------------------------------------|
|C|F-Dm|G|C| Piano 

Vers:
e|--0--1--3----0--1--3----8--7--5--1----------8--8--7-----0--1--7--5--3---|
B|------------------------------------5--3-------------3------------------|
G|------------------------------------------------------------------------|
D|------------------------------------------------------------------------|
A|------------------------------------------------------------------------|
E|------------------------------------------------------------------------|
e|--0--1--3----0--1--3----8--7--5--1----------8--8--7-----0--1------------|
B|------------------------------------5--3-------------3--------0--1------|
G|------------------------------------------------------------------------|
D|------------------------------------------------------------------------|
A|------------------------------------------------------------------------|
E|------------------------------------------------------------------------|
 
       C                     F           Dm
Æ sjer stjærna som skin over Trondhjæm i natt, 
        G                      C           G
som eit smykke mot Gråkaillens rand.
       C                        F          Dm
Æ sjer lys fra eit skip mot eit skimrandes hav, 
G                   C
stille legg det fra land.
 
Am                   em                       dm     f          G
Verden den viske god natt og sov godt og dein gamle domen hold vakt.
     C                     F       Dm  G                 C
Over hjærta som banke over store å små over ei trondhjæmsnatt.
 
      C                 F      Dm
Æ sjer munkholmen bade i gull i natt, 
   G                       C     G
den stråle som ein vakker rubin.
       C                   F      Dm
Æ sjer disen over elva lage eventyrland 
    G                 C
som spunne av finaste lin. 
 
Am                   Em                       Dm     f           G
Verden den viske god natt og sov godt og dein gamle domen hold vakt.
     C                     F       Dm  G                 C
Over hjærta som banke over store å små over ei trondhjæmsnatt.
 
Bridge:
 
Eb                                      Bb
Kjærliget levve bak nattsvarte ruta, det samme gjør smerte og sår.
Eb                                               Ab              Cm/d G
Drømmen den lokke fram smil, fjerne tåra tåra og trøste det va i går.
 
 
       C                     F           Dm
Æ sjer stjærna som skin over Trondhjæm i natt, 
        G                      C           G
som eit smykke mot Gråkaillens rand.
       C                        F          Dm
Æ sjer lys fra eit skip mot eit skimrandes hav, 
G                   C
stille legg det fra land.
 
 
 
Am                   Em                        Dm    f         G
Verden den viske god natt og sov godt og dein gamle domen hold vakt.
     C                     F       Dm  G                 C
Over hjærta som banke over store å små over ei trondhjæmsnatt
     C                     F       Dm  G                 C......
Over hjærta som banke over store å små over ei trondhjæmsnatt...

Kommentarer:

Dette feltet skal ikke fylles ut:
  • Steinar Godager (Gjest)
    Utrolig flott.Tusen Takk
  • TrubadurSverkmo1665
    ????
  • MartinRD96
    Takk for tilbakemelding @TrubadurSverkmo. Driver nå å fikser Intro tabs til denne
  • TrubadurSverkmo1665
    Bidge: Cm/d G i steden for Dm/d G. Ellers veldig bra!
Lagre i egne samlinger
Vurderinger