Rottu i hjarta

av stb 27/07-2020
Rottu i hjarta

Intro:
e|--------------------------------------0------------------------|
B|------------------------------------1---1----------------------|
G|--5h7-5-4-------------------------2-------2--------------------|
D|----------7-5-3-----------------2------------------------------|
A|-----------------7-5-3--------0--------------------------------|
E|-----------------------7-5-3-----------------------------------|



Vers 1

Am           C          Dm
eit feiltrinn, litt for svak
F           G          C
feil taiming, litt for mjuk
E          G        Am 
forgifta reisten tå livet
Am         E        Am
rett inn i døden og ut
Am          F         E
din menneskelege kapital
E                Am                   
din omsorgsfulle stil
F           Dm
din joviale natur
G              
va burte i eit smil


Ref.
        Am      Dm      
det bur rottu i hjarta mitt
           E   G     Am
dei er kje råd og bi kvitt


Mellomspill 1 (Repeter intro)


Vers 2

Am     C        Dm
eg har sett det før
F       G          C
det har skjedd med fleir
E            G       Am
fyrst er det vart og velmeint
Am      E            Am
so kjem lengsel ette meir
Am     F      E
heile deg bi rana
E                  Am
din hardt lærde livvisdom
F                Dm
og dine favorittdikt
G
du mista din person


Ref.
        Am      Dm      
det bur rottu i hjarta mitt
           E   G     Am
dei er kje råd og bi kvitt


Mellomspill 2:
e|---------------------------------------------------------------|
B|---------------------------------------------------------------|
G|---------------------------------------------------------------|
D|-1h2---0----1h2------------------------------------------------|
A|-----3---0------3----------------------------------------------|
E|-------------------0-1-----------------------------------------|


Bridge

F  Dm         C           G    F
åh som eg vil bore hendan jøno håret
Dm             C         G       F
på ei fjørlett jente som klara å hente
    F     E     Am        Am    E            F
det beste i meg fram, som ingen trudde gjekk an
F      E         Am     Am     E    F             G
som eg knapt kan fatte, som vil overnatte


Ref.
        Am      Dm      
det bur rottu i hjarta mitt
           E   G     Am
dei er kje råd og bi kvitt

Outro:
                                                          Am
e|---------------------------------------------------------------|
B|---------------------------------------------------------------|
G|-----------------2----5h7-5-4----------------------------------|
D|-1h2---0------2----------------7-5-3---------------------------|
A|-----3---0----------------------------7-5-3--------0-----------|
E|--------------------------------------------7-5-3--------------|

| /  slide up
| \  slide down
| h  hammer-on
| p  pull-off
| ~  vibrato
| +  harmonic
| x  Mute note

Kommentarer:

Dette feltet skal ikke fylles ut:
Lagre i egne samlinger
Vurderinger