Berre ei øl

av Sleexus 11/08-2020
Sang tekst med akkorder nederst i gitar tabulatoret.

[Cadd9] [G(5)/H] [D] [G(5] [Em] [Am]

|--3-----2-----2-----3-----3-----0--|
|--3-----2-----3-----3-----3-----1--|
|--0-----0-----2-----0-----0-----2--|
|--2-----0-----0-----0-----2-----2--|
|--3-----2-----------2-----2-----0--|
|--------------------3-----0--------|

 00:00

|----------------------------------------------|
|-----------------------------3----------------|
|---------------0-------------2-------------0--|
|------------0-------------0----------------0--|
|--0h2--2h3--------2p0-------------------------|
|-----------------------3--------0--2sb--3-----|

01:16

|---------------------------------------------|
|---------------------------------------------|
|---------------------------------------------|
|---------------------------------------------|
|--------0--2--3--3--2--0-----3s5-------------|
|--3--3--------------------3-------5sb-bd--3--|


 01:48

|------------------------------------------------|
|-------7s5--5--5--------------------------------|
|-------7s5--5--5--7--7--7-----------------------|
|------------------9--7--6s5--3sb--0-------------|
|--7s9--------------------------------0h2--3--2--|
|------------------------------------------------|

|---------------------------------------------|
|---------------------------------------------|
|---------------------------------------------|
|---------------------------------------------|
|--4h5-5--4h5-5--4h5-5--4h5-5--5p3p2p0-----0--|
|---------------------------------------3-----|

 02:17

|--------------------------------------------------|
|--------------------------------------------------|
|--------------------------------------------------|
|-------0-----3p0------------------0---------------|
|--3sb-----0-------3p0--3s5(vent)-----3p2----------|
|------------------------------------------2sb--3--|


 02:43 Gitar-solo

|--------------------------------------------------------------------------|
|----------------------------0---------------------------------------------|
|--------------------------------------------------------------------------|
|-----------------5-----7s9-----9s7p5-------5------------------------5-----|
|-------5h7--5h7-----5-----------------5h7-----5h7p5---------5--5h7-----7--|
|--5s7------------------------------------------------5h6h7----------------|
                     pm

|-------------------------------------|
|-----------------------8--10---------|
|--5p4------------7-------------------|
|-------7p5--7s9-----9---------10s12--|
|-------------------------------------|
|-------------------------------------|

  03:43 - Outro

|--------------------------------------------------------------|
|----------3--------3--------3--------3-------3----------------|
|-------0--------0--------0--------0-------0-------------------|
|--4h5--------4--------2--------0------------------------------|
|----------------------------------------3-------2--0----------|
|------------------------------------------------------3sb--3--|

h  = hammer-on
p  = pull-off
sb = small bend
s  = slide
bd = bend down

Intro: Cadd9 - G(5)/H - D - G(5)

Vers 1:

   G(5)                           Cadd9            G(5)
Ej he nå ofte haurt det og ej he sikkert sagt det sjøl
Ej ska [D]berre sta og t[Cadd9]a mej ei [G(5]øl.
         G(5)                     Cadd9      G(5)
Ette ein longe dag på arbeid, med overtid og styr
ej må [D]berre sta og [Cadd9]ta mej ei [G(5]øl.

OG ej [Cadd9]kjenne [G(5]mej sjøl [D]best, ej [Cadd9]veit det [G(5]kan bli [D]fest.
Ej [Am]huska Godt sist når ej sa, [Cadd9]ej ska berre ta ei [G(5]øl,
      D
ta ei øl

Refreng:

            G(5)   Cadd9    G(5)    Cadd9     G(5)
Då vart det ei, og det vart to, for øla va so god.
Ej [Em]sat og drakk so [Cadd9]monge so ej [D]greidde.
       G(5)       Cadd9    G(5)   Cadd9          G(5)
Og det vart åtte, det vart ni, ej trur det bikka ti.
Og det va [Em]ej so berre [Cadd9]skolde [D]ta ei [G(5]øl.


[Cadd9] [G(5] [D] [G(5]

G(5)
På ein varme, fine sommardag, med grillmat og salat.
Ej må [D]berre sta' og [Cadd9]ta mej ei [G(5]øl.
G(5)
Men ein nabo ropa høgt, du må'kje ete meire mat.
Du må [D]kome hit og [Cadd9]ta dej ei [G(5]øl.

Men ej[Cadd9] kjenne[G(5] mej sjøl[D] best, ej[Cadd9] veit det[G(5] kan bli[D] fest.
Ej [Am]huska godt sist når ej sa, [Cadd9]ej ska berre ta ei [G(5]øl,
      D
ta ei øl

Refreng:

            G(5)   Cadd9    G(5)    Cadd9     G(5)
Då vart det ei, og det vart to, for øla va so god.
Ej [Em]sat og drakk so [Cadd9]monge so ej [D]greidde.
       G(5)       Cadd9    G(5)   Cadd9          G(5)
Og det vart åtte, det vart ni, ej trur det bikka ti.
Og det va [Em]ej so berre [Cadd9]skolde [D]ta ei [G(5]øl.

Trekkspill og gitarsoloer:

G(5) - Cadd9 - G(5) - Cadd9 - G(5) - Em - Cadd9 - D
G(5) - Cadd9 - G(5) - Cadd9 - G(5) - Em - Cadd9 - D - G(5)


Ja, når [Cadd9]pila peika [G(5]oppover og [Cadd9]alt gjenge [G(5]bra,
då [Am]e det lett å tenkje[Cadd9] ei Hansa må ej h[D]a.


Refreng:

           G(5)   Cadd9   G(5)    Cadd9     G(5)
Då bli det ei, og det bli to, for øla va so god.
Ej [Em]sat og drakk so [Cadd9]monge so ej [D]greidde.
       G(5)       Cadd9    G(5)   Cadd9          G(5)
Og det vart åtte, det vart ni, ej trur det bikka ti.
Og det va [Em]ej so berre [Cadd9]skolde [D]ta ei [G(5]øl.

Ja, det va [Cadd9]ej so berre [D]skolde ta ei [G(5]øl.

Andre versjoner:

Kommentarer:

Dette feltet skal ikke fylles ut:
Lagre i egne samlinger
Vurderinger