Eg Vil Maula Deg

av Thobiashs 19/08-2020
Bm      G                       D        A 
Eg vil maula deg til du står i bru

Bm      G                       D        A 
Eg vil maula deg til du står i bru


Bm      G                       D        A 
Eg vil maula deg til du står i bru


Bm      G                       D        A 
Eg vil maula deg til du står i bru


Vers 1:

Bm                G            D               A 
Det var sommeren ni og seksti, e var kanon og ho var litt sexy

Bm         G               D                   A
Ho hadde langt lyst hår, blåe øyne og noen helsikkas patter

Bm              G                 D                           A
Ho stod der å svingte og dansa, blusa hang laus det var som hjerte mitt stansa

Bm              G             D                   A
E slukte opp resten av øla, manna meg opp å gikk hen å sa


Ref;


Bm      G                       D        A 
Eg vil maula deg til du står i bru

Bm      G                       D        A 
Eg vil maula deg til du står i bru


Bm      G                       D        A 
Eg vil maula deg til du står i bru


Bm      G                       D        A 
Eg vil maula deg til du står i bru

Vers 2:

Ho stod der med hakeslepp, store blå øyne som lyste mot mæ
E innså at e kanskje ikkje burde ha sagt det der
E fikk litt panikk og måtte bare komme mæ ud, 
Tok opp mobilen og lata som det ringte fra Knut
Men i det e skulle snu mæ bort å dra, tok ho tak i mæ å sa



Ref

Eg skal rimma deg til du står i bru
Eg skal rimma deg til du står i bru
Eg skal rimma deg til du står i bru
Eg skal rimma deg til du står i bru, til du står i bru


Bridge:

F#    Bm             F#
E Ska gi dæ det du fortjener

F#           Bm                        F#
Du ska få smage du ska kjenne at du lever

F#     Bm            F#
E ska ede, ja e ska maule

F#        Bm            A         BM 
Du ska rimmes til du begynner å gaule



Gitar solo: (Standard tuning) Grep som vers/refreng




------------------------------------------------------------------------------------------
------------------------------------------------------------------------------------------
--7/9---------------------------------------------------------9---------------------------
-------7--9/11-------------------11---9---11---9h11p9--7--9-------------------------------
----------------10--12--10h12p10----------------------------------------------------------
------------------------------------------------------------------------------------------


------------------------------------------------------------------------------------------
------------------------------------------------------------------------------------------
------------------------------------------------------------------------------------------
-----------------11-----------11------------------------11---------------11----------------
12----10h12p10--------12--10------12--10--12--10h12p10------12--10h12p10---- 12---10/15----
------------------------------------------------------------------------------------------



------------------------------------------------------------------------------------------
------------------------------------------------------------------------------------------
---------------------------9---------------------------------------------------------------
--------11-----11--9---7-------7/9---------------------------------------------------------
12--10-----10-----------------------7/12---------------------------------------------------
------------------------------------------------------------------------------------------



Eg skal rimma deg til du står i bru
Eg skal rimma deg til du står i bru
Eg skal rimma deg til du står i bru
Eg skal rimma deg til du står i bru, til du står i bru

Kommentarer:

Dette feltet skal ikke fylles ut:
  • Gjest
    Takk for tab, GOD jobb!
Lagre i egne samlinger
Vurderinger