Ronny Ponny

av Sleexus 30/08-2020
Sang tekst med akkorder nederst i gitar tabulatoret. 

Elgitar = Ingen capo
Kassegitar = Capo på tredje bånd, akkorder her er navngitt som om at tredje bånd er starten på gitarhalsen.
             Eks. med akkorden C. Start og tell fra 0 hvor capoen er plassert(bånd 3) og opp tre bånd på A-strengen.
             Med andre ord, lat som om at starten på gitarhalsen nå er hvor capoen er plassert. Dette er "best practice"
             med Capo. Hvis ikke hadde det krevd mye ekstra hodearbeid, en C på denne måten med capo på tredje bånd er 
             jo "egentlig" en D# akkord.
        
 Cadd9  G/H    D     G     Em    Hm     

|--3-----2-----2-----3-----3-----2--|
|--3-----2-----3-----3-----3-----3--|
|--0-----0-----2-----0-----0-----4--|
|--2-----0-----0-----0-----2-----4--|
|--3-----2-----------2-----2-----2--|
|--------------------3-----0--------|

Alle elgitar partier-->

00:00 Intro

|------------------------------|
|------------------------------|
|------------------------------|
|------------------------------|
|----------0--1--1-1--0--------|
|--3--3-3----------------3--1--|

|-----------------------------------------|
|-----------------------------------------|
|-----------------------------------------|
|------------------------0----------------|
|----------0--1--1-1--3-----3-------------|
|--3--3-3----------------------sb3-bd--1--|

Refreng 1 00:36 (Spill dette partiet med lett "mutede" strenger)

|--------------------------------|
|--------------------------------|
|--------------------------------|
|--------------------------------| X 2
|--------0--1-----1--1-----3-----|
|--1--3--------1--------1-----1--|

|-----------------------------------|
|-----------------------------------|
|-----------------------------------|
|-----------------------------------|
|--------0--1-----1--1-0------3-----|
|--1--3--------1---------3-1-----1--|

|----------------------------------------------|
|----------------------------------------------|
|----------------------------------------------|
|----------------------------------------------|
|-----------------0--1--1-0------3-----3-------|
|--1--3--1--3--3------------3-1-----1----1--3--|

Vers 2 elgitar partier 

01:05

|------------------------------|
|-------6-----5-----3----------|
|------------------------------|
|--5s7-----5-----3-----5----3--|
|------------------------------|
|------------------------------|

01:12

|---------------------------------------------|
|------------6--------8--------10---------11--|
|---------5-----------------------------------|
|--3s5s7--------8s10-----8s10------10s12------|
|---------------------------------------------|
|---------------------------------------------|

01:19

|--6p5------------------|
|-------8--6~-----------|
|--------------7p5--3~--|
|-----------------------|
|-----------------------|
|-----------------------|

01:24

|--------------------------------------------|
|-----------------------6-----10--10s11--11--|
|--3p2---------------------------------------|
|-------3-------3--5s7-----7------10s12------|
|----------3h5-------------------------------|
|--------------------------------------------|

01:52 Gitarsolo 

|------------------------------------------------|
|-----------------------8--10b11bd10--8----------|
|--------------------7-------------------12s10~--|
|-------5--0--5s7h8------------------------------|
|--sb8-------------------------------------------|
|------------------------------------------------|

|-------------------------------------------------|
|-------6-----6h8b10bd8--6------------------------|
|---------------------------7s5p3-------3h5b7bd5--|
|--5s7-----7-----------------------5p3------------|
|-------------------------------------------------|
|-------------------------------------------------|

|--------------------------------------------|
|-----------------------------------------6--|
|--3p2-----------------5-------5-----6h7-----|
|-------3-------3h5s7-----7s8-----8----------|
|----------3h5-------------------------------|
|--------------------------------------------|

|----------------8h10p8-------------------------|
|--8-----6h8s11----------11--sb10sd-sb10sd------|
|-----7-------------------------------------10--|
|-----------------------------------------------|
|-----------------------------------------------|
|-----------------------------------------------|

|------------------------------13-----------------|
|-------------11--13b15(hold)------bd15til13--11--|
|---------10--------------------------------------|
|--10s12------------------------------------------|
|-------------------------------------------------|
|-------------------------------------------------|

|---------------13--10----------------------------------|
|---------------------------------------13--------------|
|--12b14(hold)----------"benda"14(hold)-----14br12--10--|
|-------------------------------------------------------|
|-------------------------------------------------------|
|-------------------------------------------------------|

h  = hammer-on
p  = pull-off
sb = small bend
b  = bend
s  = slide
bd = bend down
~  = vibrato

Intro:

| Em - G - D | x 2

   Em                      Hm
Ej lure på å kjøpe mej ein hest, 
   Em     G     D
so ej kan bruke til og frå fest
Em                    Hm
han må vere rolige og snilde
G                             D
han må ta mej heim att når ej vil det

Refreng:

G                    D
ej ska kjøpe mej ein hest, 
G             D
ein skikkelig hest
G                 D
og det må ver ein ponny, 
Em     G             D
hesti' min ska heite Ronny

      Em                 Hm
ej he hatt både saude og geite'
              Em          G          D
men ej slakta dei når dei vart passe feite
   Em                 Hm
ja no he ej berre ein katt
   G                       D
så vekkje mej kvar einaste natt


Refreng

Gitar-solo:

| Em - G - D | x 3
  G - D

    Em                Hm
ein hingst det må det vere
        Em             G        D
men han må'kje ver for store og svære
        Em                     Hm
ej trur damene dei kjøme til å dåne
       G                     D
når me ride ned i gata for å råne


Refreng x2

Outro:

Em - G - D 
Em - G - D - Em

Andre versjoner:

Kommentarer:

Dette feltet skal ikke fylles ut:
Lagre i egne samlinger
Vurderinger