Harry Potter (Hedwig's Theme)

av GitarspillerTab 03/01-2021
Harry Potter

\ = Slide
e|------3\2-0--7-5--2---0-3\2-----------|
B|---5------------------------4-6-0-----|
G|-4------------------------------------|
D|--------------------------------------|
A|--------------------------------------|
E|--------------------------------------|
 
e|------3\2-0--7-10-9-8----8-7\6----0--|
B|---5-------------------9--------8----|
G|-4-----------------------------------|
D|------------------------------8------|
A|-------------------------------------|
E|-------------------------------------|
 
e|---7----7----8-7-6------7-6-----7----|
B|-8----8----8--------7-8--------------|
G|-------------------------------------|
D|----------------------------8-9------|
A|-------------------------------------|
E|-------------------------------------|
 
e|---7----7----10-9-8-----8-7\6-----0--|
B|-8----8----8----------9---------8----|
G|-------------------------------------|
D|------------------------------8------|
A|-------------------------------------|
E|-------------------------------------|

Kommentarer:

Dette feltet skal ikke fylles ut:
Lagre i egne samlinger
Vurderinger