Fader vor (Hymne)

av eyolf 28/10-2021
Capo 4. bånd (klingende tonenart H dur)

Intro:

  G       G/h       Am7               D       Em  D/f#  Gsus4   G
  :   .   .   .     :   .   .   .     :   .   .   .     :   .   .   .     
|-----------------|-----------------|-------2-3-------|-----3-----------|
|-0-------3-------|-------0-1-------|-----3-------2---|-1-------0-------|
|-----------------|-----0-----------|---2-------------|---0---0---------|
|-----0-------0---|---2-------------|-0---------------|-----------------|
|---------2-------|-0---------------|-----------------|-----------------|
|-3---------------|-----------------|---------0---2---|-3---------------|

  G/h     D7/c      G/h     D/f#      G       G/h       G/d     D
  :   .   .   .     :   .   .   .     :   .   .   .     :   .   .   .     
|-----------------|-----------------|-----------------|-3-----3-2-------|
|-------3-------3-|-------3-------3-|-----3-------3---|-----3---3-------|
|-----0-------0---|-----0-------2---|---0---0---0---0-|---4-----2-------|
|---0-------4-----|---0-------0-----|-----------------|-0---------------|
|-2-------3-------|-2---------------|---------2-------|-----------------|
|-----------------|---------2-------|-3---------------|-----------------|

  G       G7        C                 D       Em  D/f#  Gsus4   G
  :   .   .   .     :   .   .   .     :   .   .   .     :   .   .   .     
|-----3-----------|-----0-----------|-------2-3-------|-----3-----------|
|-3-----------3---|-1-----3-1-------|-----3-------3---|-1-------0-------|
|---0---0---0---0-|---0-------------|---2-------------|---0---0---------|
|---------3-------|-----------------|-0---------------|-----------------|
|---------2-------|-3---------------|-----------------|-----------------|
|-3---------------|-----------------|---------0---2---|-3---------------|

  G/h     C         G/h     Em        C       D         G
  :   .   .   .     :   .   .   .     :   .   .   .     :   .   .   .     
|-----3---2---0---|-----3-----------|-0-------2-------|-3---------------||
|-3---------------|-3---------------|-----1-------3---|---3---3---------||
|---0---0---0---0-|---0---0-----0---|---0---0---2---2-|-----5---4-------||
|-----------------|-----------2---2-|---------0-------|-5---------------||
|-2-------3-------|-2---------------|-3---------------|-----------------||
|-----------------|---------0-------|-----------------|-----------------||



G G/h Am7  D   Em D/f# Gsus4 G
Fader vor! Kom oss i   møte.
G/h        D7/c   G/h     D/f# 
Hjelp oss, du som gav din sønn,
    G       G/h    G/d D
der led for oss og døde.
G G7   C    D  Em  D/f# Gsus4 G
I vårt hjem mørket oss knuger.
G/h    C      G/h      Em   C D  G
La oss skimte stjernen over Betlehem!

G  Em Hm 
Herre hør!
C    Am   G/d D
Hold dine hender
G/h  G       D/f# A/c#
over dem som kjemper
D   Em A7    D   D7
som lider og dør.
G  G/h C     A/c#    D
Gi oss fred, hør vår bønn!
G      C    G/h  Em   C D    G  
La det være alle våre tårers lønn

G G/h Am7  D   Em D/f# Gsus4 G
Mine barn, elsker hverandre.
G/h    D7/c    G/h
Se jeg gav min sønn
   D/f#   G       G/h    G/d D
at i hans fotspor I skal vandre
G   G7   C    D  Em  D/f# Gsus4 G
Lyd mitt ord: elsker hverandre!
G/h   C       G/h      Em     C D     G
Tilgi alt, så blir det dag og fred på jord!

Kommentarer:

Dette feltet skal ikke fylles ut:
Lagre i egne samlinger
Vurderinger