Me To Går Alltid Aleina

av October 13/03-2007
Mods - Me To Går Alltid Aleina                     By: October

Intro:
A  E  F#m  D  A  E  D

E|---------------7-9-10--9-7--9-7----7---------|
B|--10--9-7-9-10------------------10---10-9-10-|
G|---------------------------------------------|
D|---------------------------------------------|
A|---------------------------------------------|
E|---------------------------------------------|


1. Vers:
A     E		 A
Me va møje yngre då
	 C#m	     F#m  E
Det e så lenge siden nå
         A       E
Me va så små då
A	E	      A
Alt det løye med fant på
     C#m          F#m  E
Fekk aldri lyst å gå
A
Hjem igjen

F#m	 E	   A
Me va så redde for det
      D         A
At di andre sko se 
   D	    E
At me to va samen
F#m	   E	      A
Me gjekk å gjemte oss vekk
	D	    A
Onna et tre bag ein hekk
   D		 E
Så fint at ingen såg oss

Refreng:
A	  E	 C#m   D
Me to går alltid aleina
A	 E	      D   D E
Me passe best for oss sjøl
A         E       C#m   D
Me to går alltid aleina
     A		       
Å eg vente te du komme
E
hjem igjen

2. Vers:
Eg minnes det som e forbi
Me fekk alt for lidå ti`
Te å ver samen
Tiå gjekk så alt for fort
Te å gjørr det me sko ha gjort
Ein gang

F#m	   E	    A
Alt det eg tenkte å gjørr
	 D	 A
Eg torde aldri å spørr
          D	   	E
Om det eg ville ha svar på
F#m	 E	   A
Eg va så sikker på det
       D	 A
At det aldri sko skje
   D		       E
At du ein gong gjekk fra meg

Refreng:

Solo:
E|--7-9------------------------------------------>
B|------10-9-7-9b-7------------------------------>
G|------------------9-6---6-4-----6---7-6-------->
D|----------------------------7-7---9------9-7-9->
A|----------------------------------------------->
E|----------------------------------------------->

-------12-----------12-----------------------------------|
-12h14----14-12--14----14--------------------------------|
--------------------------14--13-11----------------------|
------------------------------------14-12-11-------------|
---------------------------------------------14-12-14-12-|
---------------------------------------------------------|

Mellomspill 1:
Me va så redde for det…

Refreng:

Outro:
E|--10-9---------------------|
B|-------10------------------|
G|----------9-7-6-9-7-6------|
D|---------------------------|
A|---------------------------|
E|---------------------------|

Andre versjoner:

Kommentarer:

Dette feltet skal ikke fylles ut:
  • October
    Espen, det høres ut som om du har rett her, ja! Det hørtes bedre ut. Takk for tips
  • Espen Vorland (Gjest)
    Hmmm. Har alltid spilt C#m der du har F#m i refrenget.

    ...men så er jeg jo fra Bergen da, så det er meget mulig du har rett!
  • Eiendom
    den er kul sang p.s jeg er venn med barne til leif:Mathias
Lagre i egne samlinger
Vurderinger